  0
SECTION
  2
HEADER
  9
$ACADVER
  1
AC1006
  9
$DWGCODEPAGE
  3
ansi_1252
  9
$INSBASE
 10
0.0
 20
0.0
 30
0.0
  9
$EXTMIN
 10
2.3845
 20
-1.023702
  9
$EXTMAX
 10
3.868565
 20
1.72042
  9
$LIMMIN
 10
0.0
 20
0.0
  9
$LIMMAX
 10
0.0
 20
0.0
  9
$VIEWCTR
 10
6.591288
 20
4.579184
  9
$VIEWSIZE
 40
9.158369
  9
$SNAPMODE
 70
     0
  9
$SNAPUNIT
 10
1.0
 20
1.0
  9
$SNAPBASE
 10
0.0
 20
0.0
  9
$SNAPANG
 50
0.0
  9
$SNAPSTYLE
 70
     0
  9
$SNAPISOPAIR
 70
     0
  9
$GRIDMODE
 70
     0
  9
$GRIDUNIT
 10
0.0
 20
0.0
  9
$ORTHOMODE
 70
     0
  9
$REGENMODE
 70
     1
  9
$FILLMODE
 70
     1
  9
$QTEXTMODE
 70
     0
  9
$MIRRTEXT
 70
     1
  9
$DRAGMODE
 70
     2
  9
$LTSCALE
 40
1.0
  9
$OSMODE
 70
     0
  9
$ATTMODE
 70
     1
  9
$TEXTSIZE
 40
0.2
  9
$TRACEWID
 40
0.05
  9
$TEXTSTYLE
  7
STANDARD
  9
$CLAYER
  8
0
  9
$CELTYPE
  6
CONTINUOUS
  9
$CECOLOR
 62
   256
  9
$DIMSCALE
 40
1.0
  9
$DIMASZ
 40
0.18
  9
$DIMEXO
 40
0.0625
  9
$DIMDLI
 40
0.38
  9
$DIMRND
 40
0.0
  9
$DIMDLE
 40
0.0
  9
$DIMEXE
 40
0.18
  9
$DIMTP
 40
0.0
  9
$DIMTM
 40
0.0
  9
$DIMTXT
 40
0.18
  9
$DIMCEN
 40
0.09
  9
$DIMTSZ
 40
0.0
  9
$DIMTOL
 70
     0
  9
$DIMLIM
 70
     0
  9
$DIMTIH
 70
     1
  9
$DIMTOH
 70
     1
  9
$DIMSE1
 70
     0
  9
$DIMSE2
 70
     0
  9
$DIMTAD
 70
     0
  9
$DIMZIN
 70
     0
  9
$DIMBLK
  1

  9
$DIMASO
 70
     1
  9
$DIMSHO
 70
     1
  9
$DIMPOST
  1

  9
$DIMAPOST
  1

  9
$DIMALT
 70
     0
  9
$DIMALTD
 70
     2
  9
$DIMALTF
 40
25.4
  9
$DIMLFAC
 40
1.0
  9
$DIMTOFL
 70
     0
  9
$DIMTVP
 40
0.0
  9
$DIMTIX
 70
     0
  9
$DIMSOXD
 70
     0
  9
$DIMSAH
 70
     0
  9
$DIMBLK1
  1

  9
$DIMBLK2
  1

  9
$LUNITS
 70
     2
  9
$LUPREC
 70
     4
  9
$AXISMODE
 70
     0
  9
$AXISUNIT
 10
0.0
 20
0.0
  9
$SKETCHINC
 40
0.1
  9
$FILLETRAD
 40
0.0
  9
$AUNITS
 70
     0
  9
$AUPREC
 70
     0
  9
$MENU
  1
acad
  9
$ELEVATION
 40
0.0
  9
$THICKNESS
 40
0.0
  9
$LIMCHECK
 70
     0
  9
$BLIPMODE
 70
     1
  9
$CHAMFERA
 40
0.0
  9
$CHAMFERB
 40
0.0
  9
$SKPOLY
 70
     0
  9
$TDCREATE
 40
0.000000000
  9
$TDUPDATE
 40
0.000000000
  9
$TDINDWG
 40
0.0000000000
  9
$TDUSRTIMER
 40
0.0000000000
  9
$USRTIMER
 70
     1
  9
$ANGBASE
 50
0.0
  9
$ANGDIR
 70
     0
  9
$PDMODE
 70
     2
  9
$PDSIZE
 40
0.05
  9
$PLINEWID
 40
0.0
  9
$COORDS
 70
     0
  9
$SPLFRAME
 70
     0
  9
$SPLINETYPE
 70
     6
  9
$SPLINESEGS
 70
     8
  9
$ATTDIA
 70
     0
  9
$ATTREQ
 70
     1
  9
$HANDLING
 70
     1
  9
$HANDSEED
  5
91D
  9
$SURFTAB1
 70
     6
  9
$SURFTAB2
 70
     6
  9
$SURFTYPE
 70
     6
  9
$SURFU
 70
     6
  9
$SURFV
 70
     6
  9
$FLATLAND
 70
     0
  9
$UCSNAME
  2

  9
$UCSORG
 10
0.0
 20
0.0
 30
0.0
  9
$UCSXDIR
 10
1.0
 20
0.0
 30
0.0
  9
$UCSYDIR
 10
0.0
 20
1.0
 30
0.0
  9
$USERI1
 70
     0
  9
$USERI2
 70
     0
  9
$USERI3
 70
     0
  9
$USERI4
 70
     0
  9
$USERI5
 70
     0
  9
$USERR1
 40
0.0
  9
$USERR2
 40
0.0
  9
$USERR3
 40
0.0
  9
$USERR4
 40
0.0
  9
$USERR5
 40
0.0
  9
$WORLDVIEW
 70
     1
  0
ENDSEC
  0
SECTION
  2
TABLES
  0
TABLE
  2
VPORT
 70
     2
  0
VPORT
  2
*ACTIVE
 70
     0
 10
0.0
 20
0.0
 11
1.0
 21
1.0
 12
6.591288
 22
4.579184
 13
0.0
 23
0.0
 14
1.0
 24
1.0
 15
0.0
 25
0.0
 16
0.0
 26
0.0
 36
1.0
 17
0.0
 27
0.0
 37
0.0
 40
9.158369
 41
0.688564
 42
50.0
 43
0.0
 44
0.0
 50
0.0
 51
0.0
 71
     0
 72
   100
 73
     1
 74
     1
 75
     0
 76
     0
 77
     0
 78
     0
  0
VPORT
  2
DCADVPORT
 70
     0
 10
2.3845
 20
-1.023702
 11
3.868565
 21
1.72042
 12
6.21
 22
9.02
 13
0.0
 23
0.0
 14
1.0
 24
1.0
 15
0.0
 25
0.0
 16
0.0
 26
0.0
 36
1.0
 17
0.0
 27
0.0
 37
0.0
 40
18.04
 41
0.688564
 42
50.0
 43
1.0
 44
1.0
 50
0.0
 51
0.0
 71
     0
 72
   100
 73
     1
 74
     1
 75
     0
 76
     0
 77
     0
 78
     0
  0
ENDTAB
  0
TABLE
  2
LTYPE
 70
     3
  0
LTYPE
  2
CONTINUOUS
 70
    64
  3
Solid line
 72
    65
 73
     0
 40
0.0
  0
LTYPE
  2
CONTINUOUS
 70
    64
  3
Solid line
 72
    65
 73
     0
 40
0.0
  0
LTYPE
  2
DCAD_SOLID
 70
    64
  3
_________________
 72
    65
 73
     0
 40
0.0
  0
ENDTAB
  0
TABLE
  2
LAYER
 70
     5
  0
LAYER
  2
0
 70
     0
 62
     7
  6
CONTINUOUS
  0
LAYER
  2
NUMBERS
 70
     0
 62
     7
  6
CONTINUOUS
  0
LAYER
  2
HOLES
 70
     0
 62
     7
  6
CONTINUOUS
  0
LAYER
  2
SCREEN
 70
     0
 62
     7
  6
CONTINUOUS
  0
LAYER
  2
12
 70
     0
 62
     7
  6
CONTINUOUS
  0
ENDTAB
  0
TABLE
  2
STYLE
 70
     2
  0
STYLE
  2
STANDARD
 70
     0
 40
0.0
 41
1.0
 50
0.0
 71
     0
 42
0.0
  3
txt
  4

  0
STYLE
  2

 70
    65
 40
0.0
 41
1.0
 50
0.0
 71
     0
 42
0.2
  3
ltypeshp.shx
  4

  0
ENDTAB
  0
TABLE
  2
VIEW
 70
     0
  0
ENDTAB
  0
TABLE
  2
UCS
 70
     0
  0
ENDTAB
  0
ENDSEC
  0
SECTION
  2
BLOCKS
  0
ENDSEC
  0
SECTION
  2
ENTITIES
  0
POLYLINE
  8
SCREEN
  6
DCAD_SOLID
 62
    16
 48
2.0
  5
25
 66
     1
 10
0.0
 20
0.0
 30
0.0
 70
   128
  0
VERTEX
  8
SCREEN
  6
DCAD_SOLID
 62
    16
 48
2.0
  5
26
 10
2.906137
 20
0.438967
 30
0.0
 40
0.0
 41
0.0
  0
VERTEX
  8
SCREEN
  6
DCAD_SOLID
 62
    16
 48
2.0
  5
27
 10
2.906137
 20
0.405881
 30
0.0
 40
0.0
 41
0.0
  0
VERTEX
  8
SCREEN
  6
DCAD_SOLID
 62
    16
 48
2.0
  5
28
 10
2.903699
 20
0.399682
 30
0.0
 40
0.0
 41
0.0
  0
VERTEX
  8
SCREEN
  6
DCAD_SOLID
 62
    16
 48
2.0
  5
29
 10
2.90126
 20
0.397618
 30
0.0
 40
0.0
 41
0.0
  0
VERTEX
  8
SCREEN
  6
DCAD_SOLID
 62
    16
 48
2.0
  5
2A
 10
2.896392
 20
0.395543
 30
0.0
 40
0.0
 41
0.0
  0
VERTEX
  8
SCREEN
  6
DCAD_SOLID
 62
    16
 48
2.0
  5
2B
 10
2.891515
 20
0.395543
 30
0.0
 40
0.0
 41
0.0
  0
VERTEX
  8
SCREEN
  6
DCAD_SOLID
 62
    16
 48
2.0
  5
2C
 10
2.886644
 20
0.397618
 30
0.0
 40
0.0
 41
0.0
  0
VERTEX
  8
SCREEN
  6
DCAD_SOLID
 62
    16
 48
2.0
  5
2D
 10
2.884212
 20
0.399682
 30
0.0
 40
0.0
 41
0.0
  0
VERTEX
  8
SCREEN
  6
DCAD_SOLID
 62
    16
 48
2.0
  5
2E
 10
2.881771
 20
0.405881
 30
0.0
 40
0.0
 41
0.0
  0
VERTEX
  8
SCREEN
  6
DCAD_SOLID
 62
    16
 48
2.0
  5
2F
 10
2.881771
 20
0.410016
 30
0.0
 40
0.0
 41
0.0
  0
SEQEND
  8
0
  5
30
  0
POLYLINE
  8
SCREEN
  6
DCAD_SOLID
 62
    16
 48
2.0
  5
31
 66
     1
 10
0.0
 20
0.0
 30
0.0
 70
   128
  0
VERTEX
  8
SCREEN
  6
DCAD_SOLID
 62
    16
 48
2.0
  5
32
 10
3.376459
 20
0.09762
 30
0.0
 40
0.0
 41
0.0
  0
VERTEX
  8
SCREEN
  6
DCAD_SOLID
 62
    16
 48
2.0
  5
33
 10
3.403257
 20
0.09762
 30
0.0
 40
0.0
 41
0.0
  0
VERTEX
  8
SCREEN
  6
DCAD_SOLID
 62
    16
 48
2.0
  5
34
 10
3.388639
 20
0.081072
 30
0.0
 40
0.0
 41
0.0
  0
VERTEX
  8
SCREEN
  6
DCAD_SOLID
 62
    16
 48
2.0
  5
35
 10
3.395944
 20
0.081072
 30
0.0
 40
0.0
 41
0.0
  0
VERTEX
  8
SCREEN
  6
DCAD_SOLID
 62
    16
 48
2.0
  5
36
 10
3.400819
 20
0.079008
 30
0.0
 40
0.0
 41
0.0
  0
VERTEX
  8
SCREEN
  6
DCAD_SOLID
 62
    16
 48
2.0
  5
37
 10
3.403257
 20
0.076944
 30
0.0
 40
0.0
 41
0.0
  0
VERTEX
  8
SCREEN
  6
DCAD_SOLID
 62
    16
 48
2.0
  5
38
 10
3.405693
 20
0.070745
 30
0.0
 40
0.0
 41
0.0
  0
VERTEX
  8
SCREEN
  6
DCAD_SOLID
 62
    16
 48
2.0
  5
39
 10
3.405693
 20
0.066603
 30
0.0
 40
0.0
 41
0.0
  0
VERTEX
  8
SCREEN
  6
DCAD_SOLID
 62
    16
 48
2.0
  5
3A
 10
3.403257
 20
0.060411
 30
0.0
 40
0.0
 41
0.0
  0
VERTEX
  8
SCREEN
  6
DCAD_SOLID
 62
    16
 48
2.0
  5
3B
 10
3.398384
 20
0.056273
 30
0.0
 40
0.0
 41
0.0
  0
VERTEX
  8
SCREEN
  6
DCAD_SOLID
 62
    16
 48
2.0
  5
3C
 10
3.391075
 20
0.054197
 30
0.0
 40
0.0
 41
0.0
  0
VERTEX
  8
SCREEN
  6
DCAD_SOLID
 62
    16
 48
2.0
  5
3D
 10
3.383764
 20
0.054197
 30
0.0
 40
0.0
 41
0.0
  0
VERTEX
  8
SCREEN
  6
DCAD_SOLID
 62
    16
 48
2.0
  5
3E
 10
3.376459
 20
0.056273
 30
0.0
 40
0.0
 41
0.0
  0
VERTEX
  8
SCREEN
  6
DCAD_SOLID
 62
    16
 48
2.0
  5
3F
 10
3.374017
 20
0.058336
 30
0.0
 40
0.0
 41
0.0
  0
VERTEX
  8
SCREEN
  6
DCAD_SOLID
 62
    16
 48
2.0
  5
40
 10
3.371583
 20
0.062471
 30
0.0
 40
0.0
 41
0.0
  0
SEQEND
  8
0
  5
41
  0
POLYLINE
  8
SCREEN
  6
DCAD_SOLID
 62
    16
 48
2.0
  5
42
 66
     1
 10
0.0
 20
0.0
 30
0.0
 70
   128
  0
VERTEX
  8
SCREEN
  6
DCAD_SOLID
 62
    16
 48
2.0
  5
43
 10
2.863316
 20
0.5912
 30
0.0
 40
0.0
 41
0.0
  0
VERTEX
  8
SCREEN
  6
DCAD_SOLID
 62
    16
 48
2.0
  5
44
 10
2.863316
 20
0.529242
 30
0.0
 40
0.0
 41
0.0
  0
SEQEND
  8
0
  5
45
  0
POLYLINE
  8
SCREEN
  6
DCAD_SOLID
 62
    16
 48
2.0
  5
46
 66
     1
 10
0.0
 20
0.0
 30
0.0
 70
   128
  0
VERTEX
  8
SCREEN
  6
DCAD_SOLID
 62
    16
 48
2.0
  5
47
 10
2.863316
 20
0.5912
 30
0.0
 40
0.0
 41
0.0
  0
VERTEX
  8
SCREEN
  6
DCAD_SOLID
 62
    16
 48
2.0
  5
48
 10
2.881258
 20
0.5912
 30
0.0
 40
0.0
 41
0.0
  0
VERTEX
  8
SCREEN
  6
DCAD_SOLID
 62
    16
 48
2.0
  5
49
 10
2.887215
 20
0.588223
 30
0.0
 40
0.0
 41
0.0
  0
VERTEX
  8
SCREEN
  6
DCAD_SOLID
 62
    16
 48
2.0
  5
4A
 10
2.889223
 20
0.585334
 30
0.0
 40
0.0
 41
0.0
  0
VERTEX
  8
SCREEN
  6
DCAD_SOLID
 62
    16
 48
2.0
  5
4B
 10
2.891174
 20
0.579383
 30
0.0
 40
0.0
 41
0.0
  0
VERTEX
  8
SCREEN
  6
DCAD_SOLID
 62
    16
 48
2.0
  5
4C
 10
2.891174
 20
0.570542
 30
0.0
 40
0.0
 41
0.0
  0
VERTEX
  8
SCREEN
  6
DCAD_SOLID
 62
    16
 48
2.0
  5
4D
 10
2.889223
 20
0.564679
 30
0.0
 40
0.0
 41
0.0
  0
VERTEX
  8
SCREEN
  6
DCAD_SOLID
 62
    16
 48
2.0
  5
4E
 10
2.887215
 20
0.561706
 30
0.0
 40
0.0
 41
0.0
  0
VERTEX
  8
SCREEN
  6
DCAD_SOLID
 62
    16
 48
2.0
  5
4F
 10
2.881258
 20
0.558728
 30
0.0
 40
0.0
 41
0.0
  0
VERTEX
  8
SCREEN
  6
DCAD_SOLID
 62
    16
 48
2.0
  5
50
 10
2.863316
 20
0.558728
 30
0.0
 40
0.0
 41
0.0
  0
SEQEND
  8
0
  5
51
  0
POLYLINE
  8
SCREEN
  6
DCAD_SOLID
 62
    16
 48
2.0
  5
52
 66
     1
 10
0.0
 20
0.0
 30
0.0
 70
   129
  0
VERTEX
  8
SCREEN
  6
DCAD_SOLID
 62
    16
 48
2.0
  5
53
 10
2.909113
 20
0.535185
 30
0.0
 40
0.0
 41
0.0
  0
VERTEX
  8
SCREEN
  6
DCAD_SOLID
 62
    16
 48
2.0
  5
54
 10
2.907109
 20
0.532211
 30
0.0
 40
0.0
 41
0.0
  0
VERTEX
  8
SCREEN
  6
DCAD_SOLID
 62
    16
 48
2.0
  5
55
 10
2.909113
 20
0.529242
 30
0.0
 40
0.0
 41
0.0
  0
VERTEX
  8
SCREEN
  6
DCAD_SOLID
 62
    16
 48
2.0
  5
56
 10
2.911062
 20
0.532211
 30
0.0
 40
0.0
 41
0.0
  0
VERTEX
  8
SCREEN
  6
DCAD_SOLID
 62
    16
 48
2.0
  5
57
 10
2.909113
 20
0.535185
 30
0.0
 40
0.0
 41
0.0
  0
SEQEND
  8
0
  5
58
  0
POLYLINE
  8
SCREEN
  6
DCAD_SOLID
 62
    16
 48
2.0
  5
59
 66
     1
 10
0.0
 20
0.0
 30
0.0
 70
   128
  0
VERTEX
  8
SCREEN
  6
DCAD_SOLID
 62
    16
 48
2.0
  5
5A
 10
2.929002
 20
0.5912
 30
0.0
 40
0.0
 41
0.0
  0
VERTEX
  8
SCREEN
  6
DCAD_SOLID
 62
    16
 48
2.0
  5
5B
 10
2.929002
 20
0.529242
 30
0.0
 40
0.0
 41
0.0
  0
SEQEND
  8
0
  5
5C
  0
POLYLINE
  8
SCREEN
  6
DCAD_SOLID
 62
    16
 48
2.0
  5
5D
 66
     1
 10
0.0
 20
0.0
 30
0.0
 70
   129
  0
VERTEX
  8
SCREEN
  6
DCAD_SOLID
 62
    16
 48
2.0
  5
5E
 10
2.94889
 20
0.535185
 30
0.0
 40
0.0
 41
0.0
  0
VERTEX
  8
SCREEN
  6
DCAD_SOLID
 62
    16
 48
2.0
  5
5F
 10
2.946886
 20
0.532211
 30
0.0
 40
0.0
 41
0.0
  0
VERTEX
  8
SCREEN
  6
DCAD_SOLID
 62
    16
 48
2.0
  5
60
 10
2.94889
 20
0.529242
 30
0.0
 40
0.0
 41
0.0
  0
VERTEX
  8
SCREEN
  6
DCAD_SOLID
 62
    16
 48
2.0
  5
61
 10
2.950897
 20
0.532211
 30
0.0
 40
0.0
 41
0.0
  0
VERTEX
  8
SCREEN
  6
DCAD_SOLID
 62
    16
 48
2.0
  5
62
 10
2.94889
 20
0.535185
 30
0.0
 40
0.0
 41
0.0
  0
SEQEND
  8
0
  5
63
  0
POLYLINE
  8
SCREEN
  6
DCAD_SOLID
 62
    16
 48
2.0
  5
64
 66
     1
 10
0.0
 20
0.0
 30
0.0
 70
   128
  0
VERTEX
  8
SCREEN
  6
DCAD_SOLID
 62
    16
 48
2.0
  5
65
 10
2.968781
 20
0.5912
 30
0.0
 40
0.0
 41
0.0
  0
VERTEX
  8
SCREEN
  6
DCAD_SOLID
 62
    16
 48
2.0
  5
66
 10
2.968781
 20
0.529242
 30
0.0
 40
0.0
 41
0.0
  0
SEQEND
  8
0
  5
67
  0
POLYLINE
  8
SCREEN
  6
DCAD_SOLID
 62
    16
 48
2.0
  5
68
 66
     1
 10
0.0
 20
0.0
 30
0.0
 70
   128
  0
VERTEX
  8
SCREEN
  6
DCAD_SOLID
 62
    16
 48
2.0
  5
69
 10
2.966369
 20
0.590729
 30
0.0
 40
0.0
 41
0.0
  0
VERTEX
  8
SCREEN
  6
DCAD_SOLID
 62
    16
 48
2.0
  5
6A
 10
2.991628
 20
0.590729
 30
0.0
 40
0.0
 41
0.0
  0
SEQEND
  8
0
  5
6B
  0
POLYLINE
  8
SCREEN
  6
DCAD_SOLID
 62
    16
 48
2.0
  5
6C
 66
     1
 10
0.0
 20
0.0
 30
0.0
 70
   128
  0
VERTEX
  8
SCREEN
  6
DCAD_SOLID
 62
    16
 48
2.0
  5
6D
 10
2.968781
 20
0.561706
 30
0.0
 40
0.0
 41
0.0
  0
VERTEX
  8
SCREEN
  6
DCAD_SOLID
 62
    16
 48
2.0
  5
6E
 10
2.984716
 20
0.561706
 30
0.0
 40
0.0
 41
0.0
  0
SEQEND
  8
0
  5
6F
  0
POLYLINE
  8
SCREEN
  6
DCAD_SOLID
 62
    16
 48
2.0
  5
70
 66
     1
 10
0.0
 20
0.0
 30
0.0
 70
   128
  0
VERTEX
  8
SCREEN
  6
DCAD_SOLID
 62
    16
 48
2.0
  5
71
 10
2.968781
 20
0.529242
 30
0.0
 40
0.0
 41
0.0
  0
VERTEX
  8
SCREEN
  6
DCAD_SOLID
 62
    16
 48
2.0
  5
72
 10
2.994632
 20
0.529242
 30
0.0
 40
0.0
 41
0.0
  0
SEQEND
  8
0
  5
73
  0
POLYLINE
  8
SCREEN
  6
DCAD_SOLID
 62
    16
 48
2.0
  5
74
 66
     1
 10
0.0
 20
0.0
 30
0.0
 70
   128
  0
VERTEX
  8
SCREEN
  6
DCAD_SOLID
 62
    16
 48
2.0
  5
75
 10
3.00856
 20
0.5912
 30
0.0
 40
0.0
 41
0.0
  0
VERTEX
  8
SCREEN
  6
DCAD_SOLID
 62
    16
 48
2.0
  5
76
 10
3.00856
 20
0.529242
 30
0.0
 40
0.0
 41
0.0
  0
SEQEND
  8
0
  5
77
  0
POLYLINE
  8
SCREEN
  6
DCAD_SOLID
 62
    16
 48
2.0
  5
78
 66
     1
 10
0.0
 20
0.0
 30
0.0
 70
   128
  0
VERTEX
  8
SCREEN
  6
DCAD_SOLID
 62
    16
 48
2.0
  5
79
 10
3.00856
 20
0.5912
 30
0.0
 40
0.0
 41
0.0
  0
VERTEX
  8
SCREEN
  6
DCAD_SOLID
 62
    16
 48
2.0
  5
7A
 10
3.036417
 20
0.529242
 30
0.0
 40
0.0
 41
0.0
  0
SEQEND
  8
0
  5
7B
  0
POLYLINE
  8
SCREEN
  6
DCAD_SOLID
 62
    16
 48
2.0
  5
7C
 66
     1
 10
0.0
 20
0.0
 30
0.0
 70
   128
  0
VERTEX
  8
SCREEN
  6
DCAD_SOLID
 62
    16
 48
2.0
  5
7D
 10
3.036417
 20
0.5912
 30
0.0
 40
0.0
 41
0.0
  0
VERTEX
  8
SCREEN
  6
DCAD_SOLID
 62
    16
 48
2.0
  5
7E
 10
3.036417
 20
0.529242
 30
0.0
 40
0.0
 41
0.0
  0
SEQEND
  8
0
  5
7F
  0
POLYLINE
  8
SCREEN
  6
DCAD_SOLID
 62
    16
 48
2.0
  5
80
 66
     1
 10
0.0
 20
0.0
 30
0.0
 70
   128
  0
VERTEX
  8
SCREEN
  6
DCAD_SOLID
 62
    16
 48
2.0
  5
81
 10
3.082212
 20
0.576497
 30
0.0
 40
0.0
 41
0.0
  0
VERTEX
  8
SCREEN
  6
DCAD_SOLID
 62
    16
 48
2.0
  5
82
 10
3.080206
 20
0.582363
 30
0.0
 40
0.0
 41
0.0
  0
VERTEX
  8
SCREEN
  6
DCAD_SOLID
 62
    16
 48
2.0
  5
83
 10
3.076251
 20
0.588223
 30
0.0
 40
0.0
 41
0.0
  0
VERTEX
  8
SCREEN
  6
DCAD_SOLID
 62
    16
 48
2.0
  5
84
 10
3.072238
 20
0.5912
 30
0.0
 40
0.0
 41
0.0
  0
VERTEX
  8
SCREEN
  6
DCAD_SOLID
 62
    16
 48
2.0
  5
85
 10
3.064274
 20
0.5912
 30
0.0
 40
0.0
 41
0.0
  0
VERTEX
  8
SCREEN
  6
DCAD_SOLID
 62
    16
 48
2.0
  5
86
 10
3.060318
 20
0.588223
 30
0.0
 40
0.0
 41
0.0
  0
VERTEX
  8
SCREEN
  6
DCAD_SOLID
 62
    16
 48
2.0
  5
87
 10
3.056362
 20
0.582363
 30
0.0
 40
0.0
 41
0.0
  0
VERTEX
  8
SCREEN
  6
DCAD_SOLID
 62
    16
 48
2.0
  5
88
 10
3.054355
 20
0.576497
 30
0.0
 40
0.0
 41
0.0
  0
VERTEX
  8
SCREEN
  6
DCAD_SOLID
 62
    16
 48
2.0
  5
89
 10
3.052351
 20
0.567573
 30
0.0
 40
0.0
 41
0.0
  0
VERTEX
  8
SCREEN
  6
DCAD_SOLID
 62
    16
 48
2.0
  5
8A
 10
3.052351
 20
0.552865
 30
0.0
 40
0.0
 41
0.0
  0
VERTEX
  8
SCREEN
  6
DCAD_SOLID
 62
    16
 48
2.0
  5
8B
 10
3.054355
 20
0.544022
 30
0.0
 40
0.0
 41
0.0
  0
VERTEX
  8
SCREEN
  6
DCAD_SOLID
 62
    16
 48
2.0
  5
8C
 10
3.056362
 20
0.538081
 30
0.0
 40
0.0
 41
0.0
  0
VERTEX
  8
SCREEN
  6
DCAD_SOLID
 62
    16
 48
2.0
  5
8D
 10
3.060318
 20
0.532211
 30
0.0
 40
0.0
 41
0.0
  0
VERTEX
  8
SCREEN
  6
DCAD_SOLID
 62
    16
 48
2.0
  5
8E
 10
3.064274
 20
0.529242
 30
0.0
 40
0.0
 41
0.0
  0
VERTEX
  8
SCREEN
  6
DCAD_SOLID
 62
    16
 48
2.0
  5
8F
 10
3.072238
 20
0.529242
 30
0.0
 40
0.0
 41
0.0
  0
VERTEX
  8
SCREEN
  6
DCAD_SOLID
 62
    16
 48
2.0
  5
90
 10
3.076251
 20
0.532211
 30
0.0
 40
0.0
 41
0.0
  0
VERTEX
  8
SCREEN
  6
DCAD_SOLID
 62
    16
 48
2.0
  5
91
 10
3.080206
 20
0.538081
 30
0.0
 40
0.0
 41
0.0
  0
VERTEX
  8
SCREEN
  6
DCAD_SOLID
 62
    16
 48
2.0
  5
92
 10
3.082212
 20
0.544022
 30
0.0
 40
0.0
 41
0.0
  0
VERTEX
  8
SCREEN
  6
DCAD_SOLID
 62
    16
 48
2.0
  5
93
 10
3.082212
 20
0.552865
 30
0.0
 40
0.0
 41
0.0
  0
SEQEND
  8
0
  5
94
  0
POLYLINE
  8
SCREEN
  6
DCAD_SOLID
 62
    16
 48
2.0
  5
95
 66
     1
 10
0.0
 20
0.0
 30
0.0
 70
   128
  0
VERTEX
  8
SCREEN
  6
DCAD_SOLID
 62
    16
 48
2.0
  5
96
 10
3.072238
 20
0.552865
 30
0.0
 40
0.0
 41
0.0
  0
VERTEX
  8
SCREEN
  6
DCAD_SOLID
 62
    16
 48
2.0
  5
97
 10
3.082212
 20
0.552865
 30
0.0
 40
0.0
 41
0.0
  0
SEQEND
  8
0
  5
98
  0
POLYLINE
  8
SCREEN
  6
DCAD_SOLID
 62
    16
 48
2.0
  5
99
 66
     1
 10
0.0
 20
0.0
 30
0.0
 70
   128
  0
VERTEX
  8
SCREEN
  6
DCAD_SOLID
 62
    16
 48
2.0
  5
9A
 10
3.098147
 20
0.5912
 30
0.0
 40
0.0
 41
0.0
  0
VERTEX
  8
SCREEN
  6
DCAD_SOLID
 62
    16
 48
2.0
  5
9B
 10
3.098147
 20
0.529242
 30
0.0
 40
0.0
 41
0.0
  0
SEQEND
  8
0
  5
9C
  0
POLYLINE
  8
SCREEN
  6
DCAD_SOLID
 62
    16
 48
2.0
  5
9D
 66
     1
 10
0.0
 20
0.0
 30
0.0
 70
   128
  0
VERTEX
  8
SCREEN
  6
DCAD_SOLID
 62
    16
 48
2.0
  5
9E
 10
3.11603
 20
0.5912
 30
0.0
 40
0.0
 41
0.0
  0
VERTEX
  8
SCREEN
  6
DCAD_SOLID
 62
    16
 48
2.0
  5
9F
 10
3.11603
 20
0.529242
 30
0.0
 40
0.0
 41
0.0
  0
SEQEND
  8
0
  5
A0
  0
POLYLINE
  8
SCREEN
  6
DCAD_SOLID
 62
    16
 48
2.0
  5
A1
 66
     1
 10
0.0
 20
0.0
 30
0.0
 70
   128
  0
VERTEX
  8
SCREEN
  6
DCAD_SOLID
 62
    16
 48
2.0
  5
A2
 10
3.11603
 20
0.5912
 30
0.0
 40
0.0
 41
0.0
  0
VERTEX
  8
SCREEN
  6
DCAD_SOLID
 62
    16
 48
2.0
  5
A3
 10
3.143888
 20
0.529242
 30
0.0
 40
0.0
 41
0.0
  0
SEQEND
  8
0
  5
A4
  0
POLYLINE
  8
SCREEN
  6
DCAD_SOLID
 62
    16
 48
2.0
  5
A5
 66
     1
 10
0.0
 20
0.0
 30
0.0
 70
   128
  0
VERTEX
  8
SCREEN
  6
DCAD_SOLID
 62
    16
 48
2.0
  5
A6
 10
3.143888
 20
0.5912
 30
0.0
 40
0.0
 41
0.0
  0
VERTEX
  8
SCREEN
  6
DCAD_SOLID
 62
    16
 48
2.0
  5
A7
 10
3.143888
 20
0.529242
 30
0.0
 40
0.0
 41
0.0
  0
SEQEND
  8
0
  5
A8
  0
POLYLINE
  8
SCREEN
  6
DCAD_SOLID
 62
    16
 48
2.0
  5
A9
 66
     1
 10
0.0
 20
0.0
 30
0.0
 70
   128
  0
VERTEX
  8
SCREEN
  6
DCAD_SOLID
 62
    16
 48
2.0
  5
AA
 10
3.161771
 20
0.5912
 30
0.0
 40
0.0
 41
0.0
  0
VERTEX
  8
SCREEN
  6
DCAD_SOLID
 62
    16
 48
2.0
  5
AB
 10
3.161771
 20
0.529242
 30
0.0
 40
0.0
 41
0.0
  0
SEQEND
  8
0
  5
AC
  0
POLYLINE
  8
SCREEN
  6
DCAD_SOLID
 62
    16
 48
2.0
  5
AD
 66
     1
 10
0.0
 20
0.0
 30
0.0
 70
   128
  0
VERTEX
  8
SCREEN
  6
DCAD_SOLID
 62
    16
 48
2.0
  5
AE
 10
3.161771
 20
0.5912
 30
0.0
 40
0.0
 41
0.0
  0
VERTEX
  8
SCREEN
  6
DCAD_SOLID
 62
    16
 48
2.0
  5
AF
 10
3.187677
 20
0.5912
 30
0.0
 40
0.0
 41
0.0
  0
SEQEND
  8
0
  5
B0
  0
POLYLINE
  8
SCREEN
  6
DCAD_SOLID
 62
    16
 48
2.0
  5
B1
 66
     1
 10
0.0
 20
0.0
 30
0.0
 70
   128
  0
VERTEX
  8
SCREEN
  6
DCAD_SOLID
 62
    16
 48
2.0
  5
B2
 10
3.161771
 20
0.561706
 30
0.0
 40
0.0
 41
0.0
  0
VERTEX
  8
SCREEN
  6
DCAD_SOLID
 62
    16
 48
2.0
  5
B3
 10
3.177705
 20
0.561706
 30
0.0
 40
0.0
 41
0.0
  0
SEQEND
  8
0
  5
B4
  0
POLYLINE
  8
SCREEN
  6
DCAD_SOLID
 62
    16
 48
2.0
  5
B5
 66
     1
 10
0.0
 20
0.0
 30
0.0
 70
   128
  0
VERTEX
  8
SCREEN
  6
DCAD_SOLID
 62
    16
 48
2.0
  5
B6
 10
3.161771
 20
0.529242
 30
0.0
 40
0.0
 41
0.0
  0
VERTEX
  8
SCREEN
  6
DCAD_SOLID
 62
    16
 48
2.0
  5
B7
 10
3.187677
 20
0.529242
 30
0.0
 40
0.0
 41
0.0
  0
SEQEND
  8
0
  5
B8
  0
POLYLINE
  8
SCREEN
  6
DCAD_SOLID
 62
    16
 48
2.0
  5
B9
 66
     1
 10
0.0
 20
0.0
 30
0.0
 70
   128
  0
VERTEX
  8
SCREEN
  6
DCAD_SOLID
 62
    16
 48
2.0
  5
BA
 10
3.201605
 20
0.5912
 30
0.0
 40
0.0
 41
0.0
  0
VERTEX
  8
SCREEN
  6
DCAD_SOLID
 62
    16
 48
2.0
  5
BB
 10
3.201605
 20
0.529242
 30
0.0
 40
0.0
 41
0.0
  0
SEQEND
  8
0
  5
BC
  0
POLYLINE
  8
SCREEN
  6
DCAD_SOLID
 62
    16
 48
2.0
  5
BD
 66
     1
 10
0.0
 20
0.0
 30
0.0
 70
   128
  0
VERTEX
  8
SCREEN
  6
DCAD_SOLID
 62
    16
 48
2.0
  5
BE
 10
3.201605
 20
0.5912
 30
0.0
 40
0.0
 41
0.0
  0
VERTEX
  8
SCREEN
  6
DCAD_SOLID
 62
    16
 48
2.0
  5
BF
 10
3.227455
 20
0.5912
 30
0.0
 40
0.0
 41
0.0
  0
SEQEND
  8
0
  5
C0
  0
POLYLINE
  8
SCREEN
  6
DCAD_SOLID
 62
    16
 48
2.0
  5
C1
 66
     1
 10
0.0
 20
0.0
 30
0.0
 70
   128
  0
VERTEX
  8
SCREEN
  6
DCAD_SOLID
 62
    16
 48
2.0
  5
C2
 10
3.201605
 20
0.561706
 30
0.0
 40
0.0
 41
0.0
  0
VERTEX
  8
SCREEN
  6
DCAD_SOLID
 62
    16
 48
2.0
  5
C3
 10
3.217484
 20
0.561706
 30
0.0
 40
0.0
 41
0.0
  0
SEQEND
  8
0
  5
C4
  0
POLYLINE
  8
SCREEN
  6
DCAD_SOLID
 62
    16
 48
2.0
  5
C5
 66
     1
 10
0.0
 20
0.0
 30
0.0
 70
   128
  0
VERTEX
  8
SCREEN
  6
DCAD_SOLID
 62
    16
 48
2.0
  5
C6
 10
3.201605
 20
0.529242
 30
0.0
 40
0.0
 41
0.0
  0
VERTEX
  8
SCREEN
  6
DCAD_SOLID
 62
    16
 48
2.0
  5
C7
 10
3.227455
 20
0.529242
 30
0.0
 40
0.0
 41
0.0
  0
SEQEND
  8
0
  5
C8
  0
POLYLINE
  8
SCREEN
  6
DCAD_SOLID
 62
    16
 48
2.0
  5
C9
 66
     1
 10
0.0
 20
0.0
 30
0.0
 70
   128
  0
VERTEX
  8
SCREEN
  6
DCAD_SOLID
 62
    16
 48
2.0
  5
CA
 10
3.241384
 20
0.5912
 30
0.0
 40
0.0
 41
0.0
  0
VERTEX
  8
SCREEN
  6
DCAD_SOLID
 62
    16
 48
2.0
  5
CB
 10
3.241384
 20
0.529242
 30
0.0
 40
0.0
 41
0.0
  0
SEQEND
  8
0
  5
CC
  0
POLYLINE
  8
SCREEN
  6
DCAD_SOLID
 62
    16
 48
2.0
  5
CD
 66
     1
 10
0.0
 20
0.0
 30
0.0
 70
   128
  0
VERTEX
  8
SCREEN
  6
DCAD_SOLID
 62
    16
 48
2.0
  5
CE
 10
3.241384
 20
0.5912
 30
0.0
 40
0.0
 41
0.0
  0
VERTEX
  8
SCREEN
  6
DCAD_SOLID
 62
    16
 48
2.0
  5
CF
 10
3.259267
 20
0.5912
 30
0.0
 40
0.0
 41
0.0
  0
VERTEX
  8
SCREEN
  6
DCAD_SOLID
 62
    16
 48
2.0
  5
D0
 10
3.265284
 20
0.588223
 30
0.0
 40
0.0
 41
0.0
  0
VERTEX
  8
SCREEN
  6
DCAD_SOLID
 62
    16
 48
2.0
  5
D1
 10
3.267235
 20
0.585334
 30
0.0
 40
0.0
 41
0.0
  0
VERTEX
  8
SCREEN
  6
DCAD_SOLID
 62
    16
 48
2.0
  5
D2
 10
3.269241
 20
0.579383
 30
0.0
 40
0.0
 41
0.0
  0
VERTEX
  8
SCREEN
  6
DCAD_SOLID
 62
    16
 48
2.0
  5
D3
 10
3.269241
 20
0.573526
 30
0.0
 40
0.0
 41
0.0
  0
VERTEX
  8
SCREEN
  6
DCAD_SOLID
 62
    16
 48
2.0
  5
D4
 10
3.267235
 20
0.567573
 30
0.0
 40
0.0
 41
0.0
  0
VERTEX
  8
SCREEN
  6
DCAD_SOLID
 62
    16
 48
2.0
  5
D5
 10
3.265284
 20
0.564679
 30
0.0
 40
0.0
 41
0.0
  0
VERTEX
  8
SCREEN
  6
DCAD_SOLID
 62
    16
 48
2.0
  5
D6
 10
3.259267
 20
0.561706
 30
0.0
 40
0.0
 41
0.0
  0
VERTEX
  8
SCREEN
  6
DCAD_SOLID
 62
    16
 48
2.0
  5
D7
 10
3.241384
 20
0.561706
 30
0.0
 40
0.0
 41
0.0
  0
SEQEND
  8
0
  5
D8
  0
POLYLINE
  8
SCREEN
  6
DCAD_SOLID
 62
    16
 48
2.0
  5
D9
 66
     1
 10
0.0
 20
0.0
 30
0.0
 70
   128
  0
VERTEX
  8
SCREEN
  6
DCAD_SOLID
 62
    16
 48
2.0
  5
DA
 10
3.255312
 20
0.561706
 30
0.0
 40
0.0
 41
0.0
  0
VERTEX
  8
SCREEN
  6
DCAD_SOLID
 62
    16
 48
2.0
  5
DB
 10
3.269241
 20
0.529242
 30
0.0
 40
0.0
 41
0.0
  0
SEQEND
  8
0
  5
DC
  0
POLYLINE
  8
SCREEN
  6
DCAD_SOLID
 62
    16
 48
2.0
  5
DD
 66
     1
 10
0.0
 20
0.0
 30
0.0
 70
   128
  0
VERTEX
  8
SCREEN
  6
DCAD_SOLID
 62
    16
 48
2.0
  5
DE
 10
3.285176
 20
0.5912
 30
0.0
 40
0.0
 41
0.0
  0
VERTEX
  8
SCREEN
  6
DCAD_SOLID
 62
    16
 48
2.0
  5
DF
 10
3.285176
 20
0.529242
 30
0.0
 40
0.0
 41
0.0
  0
SEQEND
  8
0
  5
E0
  0
POLYLINE
  8
SCREEN
  6
DCAD_SOLID
 62
    16
 48
2.0
  5
E1
 66
     1
 10
0.0
 20
0.0
 30
0.0
 70
   128
  0
VERTEX
  8
SCREEN
  6
DCAD_SOLID
 62
    16
 48
2.0
  5
E2
 10
3.303058
 20
0.5912
 30
0.0
 40
0.0
 41
0.0
  0
VERTEX
  8
SCREEN
  6
DCAD_SOLID
 62
    16
 48
2.0
  5
E3
 10
3.303058
 20
0.529242
 30
0.0
 40
0.0
 41
0.0
  0
SEQEND
  8
0
  5
E4
  0
POLYLINE
  8
SCREEN
  6
DCAD_SOLID
 62
    16
 48
2.0
  5
E5
 66
     1
 10
0.0
 20
0.0
 30
0.0
 70
   128
  0
VERTEX
  8
SCREEN
  6
DCAD_SOLID
 62
    16
 48
2.0
  5
E6
 10
3.303058
 20
0.5912
 30
0.0
 40
0.0
 41
0.0
  0
VERTEX
  8
SCREEN
  6
DCAD_SOLID
 62
    16
 48
2.0
  5
E7
 10
3.330915
 20
0.529242
 30
0.0
 40
0.0
 41
0.0
  0
SEQEND
  8
0
  5
E8
  0
POLYLINE
  8
SCREEN
  6
DCAD_SOLID
 62
    16
 48
2.0
  5
E9
 66
     1
 10
0.0
 20
0.0
 30
0.0
 70
   128
  0
VERTEX
  8
SCREEN
  6
DCAD_SOLID
 62
    16
 48
2.0
  5
EA
 10
3.330915
 20
0.5912
 30
0.0
 40
0.0
 41
0.0
  0
VERTEX
  8
SCREEN
  6
DCAD_SOLID
 62
    16
 48
2.0
  5
EB
 10
3.330915
 20
0.529242
 30
0.0
 40
0.0
 41
0.0
  0
SEQEND
  8
0
  5
EC
  0
POLYLINE
  8
SCREEN
  6
DCAD_SOLID
 62
    16
 48
2.0
  5
ED
 66
     1
 10
0.0
 20
0.0
 30
0.0
 70
   128
  0
VERTEX
  8
SCREEN
  6
DCAD_SOLID
 62
    16
 48
2.0
  5
EE
 10
3.37671
 20
0.576497
 30
0.0
 40
0.0
 41
0.0
  0
VERTEX
  8
SCREEN
  6
DCAD_SOLID
 62
    16
 48
2.0
  5
EF
 10
3.374704
 20
0.582363
 30
0.0
 40
0.0
 41
0.0
  0
VERTEX
  8
SCREEN
  6
DCAD_SOLID
 62
    16
 48
2.0
  5
F0
 10
3.370694
 20
0.588223
 30
0.0
 40
0.0
 41
0.0
  0
VERTEX
  8
SCREEN
  6
DCAD_SOLID
 62
    16
 48
2.0
  5
F1
 10
3.366739
 20
0.5912
 30
0.0
 40
0.0
 41
0.0
  0
VERTEX
  8
SCREEN
  6
DCAD_SOLID
 62
    16
 48
2.0
  5
F2
 10
3.358772
 20
0.5912
 30
0.0
 40
0.0
 41
0.0
  0
VERTEX
  8
SCREEN
  6
DCAD_SOLID
 62
    16
 48
2.0
  5
F3
 10
3.354815
 20
0.588223
 30
0.0
 40
0.0
 41
0.0
  0
VERTEX
  8
SCREEN
  6
DCAD_SOLID
 62
    16
 48
2.0
  5
F4
 10
3.350805
 20
0.582363
 30
0.0
 40
0.0
 41
0.0
  0
VERTEX
  8
SCREEN
  6
DCAD_SOLID
 62
    16
 48
2.0
  5
F5
 10
3.348854
 20
0.576497
 30
0.0
 40
0.0
 41
0.0
  0
VERTEX
  8
SCREEN
  6
DCAD_SOLID
 62
    16
 48
2.0
  5
F6
 10
3.346849
 20
0.567573
 30
0.0
 40
0.0
 41
0.0
  0
VERTEX
  8
SCREEN
  6
DCAD_SOLID
 62
    16
 48
2.0
  5
F7
 10
3.346849
 20
0.552865
 30
0.0
 40
0.0
 41
0.0
  0
VERTEX
  8
SCREEN
  6
DCAD_SOLID
 62
    16
 48
2.0
  5
F8
 10
3.348854
 20
0.544022
 30
0.0
 40
0.0
 41
0.0
  0
VERTEX
  8
SCREEN
  6
DCAD_SOLID
 62
    16
 48
2.0
  5
F9
 10
3.350805
 20
0.538081
 30
0.0
 40
0.0
 41
0.0
  0
VERTEX
  8
SCREEN
  6
DCAD_SOLID
 62
    16
 48
2.0
  5
FA
 10
3.354815
 20
0.532211
 30
0.0
 40
0.0
 41
0.0
  0
VERTEX
  8
SCREEN
  6
DCAD_SOLID
 62
    16
 48
2.0
  5
FB
 10
3.358772
 20
0.529242
 30
0.0
 40
0.0
 41
0.0
  0
VERTEX
  8
SCREEN
  6
DCAD_SOLID
 62
    16
 48
2.0
  5
FC
 10
3.366739
 20
0.529242
 30
0.0
 40
0.0
 41
0.0
  0
VERTEX
  8
SCREEN
  6
DCAD_SOLID
 62
    16
 48
2.0
  5
FD
 10
3.370694
 20
0.532211
 30
0.0
 40
0.0
 41
0.0
  0
VERTEX
  8
SCREEN
  6
DCAD_SOLID
 62
    16
 48
2.0
  5
FE
 10
3.374704
 20
0.538081
 30
0.0
 40
0.0
 41
0.0
  0
VERTEX
  8
SCREEN
  6
DCAD_SOLID
 62
    16
 48
2.0
  5
FF
 10
3.37671
 20
0.544022
 30
0.0
 40
0.0
 41
0.0
  0
VERTEX
  8
SCREEN
  6
DCAD_SOLID
 62
    16
 48
2.0
  5
100
 10
3.37671
 20
0.552865
 30
0.0
 40
0.0
 41
0.0
  0
SEQEND
  8
0
  5
101
  0
POLYLINE
  8
SCREEN
  6
DCAD_SOLID
 62
    16
 48
2.0
  5
102
 66
     1
 10
0.0
 20
0.0
 30
0.0
 70
   128
  0
VERTEX
  8
SCREEN
  6
DCAD_SOLID
 62
    16
 48
2.0
  5
103
 10
3.362677
 20
0.553938
 30
0.0
 40
0.0
 41
0.0
  0
VERTEX
  8
SCREEN
  6
DCAD_SOLID
 62
    16
 48
2.0
  5
104
 10
3.381545
 20
0.553938
 30
0.0
 40
0.0
 41
0.0
  0
SEQEND
  8
0
  5
105
  0
POLYLINE
  8
SCREEN
  6
DCAD_SOLID
 62
    16
 48
2.0
  5
106
 66
     1
 10
0.0
 20
0.0
 30
0.0
 70
   128
  0
VERTEX
  8
SCREEN
  6
DCAD_SOLID
 62
    16
 48
2.0
  5
107
 10
3.396601
 20
0.532211
 30
0.0
 40
0.0
 41
0.0
  0
VERTEX
  8
SCREEN
  6
DCAD_SOLID
 62
    16
 48
2.0
  5
108
 10
3.394596
 20
0.529242
 30
0.0
 40
0.0
 41
0.0
  0
VERTEX
  8
SCREEN
  6
DCAD_SOLID
 62
    16
 48
2.0
  5
109
 10
3.392589
 20
0.532211
 30
0.0
 40
0.0
 41
0.0
  0
VERTEX
  8
SCREEN
  6
DCAD_SOLID
 62
    16
 48
2.0
  5
10A
 10
3.394596
 20
0.535185
 30
0.0
 40
0.0
 41
0.0
  0
VERTEX
  8
SCREEN
  6
DCAD_SOLID
 62
    16
 48
2.0
  5
10B
 10
3.396601
 20
0.532211
 30
0.0
 40
0.0
 41
0.0
  0
VERTEX
  8
SCREEN
  6
DCAD_SOLID
 62
    16
 48
2.0
  5
10C
 10
3.396601
 20
0.52626
 30
0.0
 40
0.0
 41
0.0
  0
VERTEX
  8
SCREEN
  6
DCAD_SOLID
 62
    16
 48
2.0
  5
10D
 10
3.394596
 20
0.520401
 30
0.0
 40
0.0
 41
0.0
  0
VERTEX
  8
SCREEN
  6
DCAD_SOLID
 62
    16
 48
2.0
  5
10E
 10
3.392589
 20
0.517424
 30
0.0
 40
0.0
 41
0.0
  0
SEQEND
  8
0
  5
10F
  0
POLYLINE
  8
SCREEN
  6
DCAD_SOLID
 62
    16
 48
2.0
  5
110
 66
     1
 10
0.0
 20
0.0
 30
0.0
 70
   128
  0
VERTEX
  8
SCREEN
  6
DCAD_SOLID
 62
    16
 48
2.0
  5
111
 10
3.414485
 20
0.5912
 30
0.0
 40
0.0
 41
0.0
  0
VERTEX
  8
SCREEN
  6
DCAD_SOLID
 62
    16
 48
2.0
  5
112
 10
3.414485
 20
0.529242
 30
0.0
 40
0.0
 41
0.0
  0
SEQEND
  8
0
  5
113
  0
POLYLINE
  8
SCREEN
  6
DCAD_SOLID
 62
    16
 48
2.0
  5
114
 66
     1
 10
0.0
 20
0.0
 30
0.0
 70
   128
  0
VERTEX
  8
SCREEN
  6
DCAD_SOLID
 62
    16
 48
2.0
  5
115
 10
3.432424
 20
0.5912
 30
0.0
 40
0.0
 41
0.0
  0
VERTEX
  8
SCREEN
  6
DCAD_SOLID
 62
    16
 48
2.0
  5
116
 10
3.432424
 20
0.529242
 30
0.0
 40
0.0
 41
0.0
  0
SEQEND
  8
0
  5
117
  0
POLYLINE
  8
SCREEN
  6
DCAD_SOLID
 62
    16
 48
2.0
  5
118
 66
     1
 10
0.0
 20
0.0
 30
0.0
 70
   128
  0
VERTEX
  8
SCREEN
  6
DCAD_SOLID
 62
    16
 48
2.0
  5
119
 10
3.432424
 20
0.5912
 30
0.0
 40
0.0
 41
0.0
  0
VERTEX
  8
SCREEN
  6
DCAD_SOLID
 62
    16
 48
2.0
  5
11A
 10
3.460281
 20
0.529242
 30
0.0
 40
0.0
 41
0.0
  0
SEQEND
  8
0
  5
11B
  0
POLYLINE
  8
SCREEN
  6
DCAD_SOLID
 62
    16
 48
2.0
  5
11C
 66
     1
 10
0.0
 20
0.0
 30
0.0
 70
   128
  0
VERTEX
  8
SCREEN
  6
DCAD_SOLID
 62
    16
 48
2.0
  5
11D
 10
3.460281
 20
0.5912
 30
0.0
 40
0.0
 41
0.0
  0
VERTEX
  8
SCREEN
  6
DCAD_SOLID
 62
    16
 48
2.0
  5
11E
 10
3.460281
 20
0.529242
 30
0.0
 40
0.0
 41
0.0
  0
SEQEND
  8
0
  5
11F
  0
POLYLINE
  8
SCREEN
  6
DCAD_SOLID
 62
    16
 48
2.0
  5
120
 66
     1
 10
0.0
 20
0.0
 30
0.0
 70
   128
  0
VERTEX
  8
SCREEN
  6
DCAD_SOLID
 62
    16
 48
2.0
  5
121
 10
3.50602
 20
0.576497
 30
0.0
 40
0.0
 41
0.0
  0
VERTEX
  8
SCREEN
  6
DCAD_SOLID
 62
    16
 48
2.0
  5
122
 10
3.504016
 20
0.582363
 30
0.0
 40
0.0
 41
0.0
  0
VERTEX
  8
SCREEN
  6
DCAD_SOLID
 62
    16
 48
2.0
  5
123
 10
3.500059
 20
0.588223
 30
0.0
 40
0.0
 41
0.0
  0
VERTEX
  8
SCREEN
  6
DCAD_SOLID
 62
    16
 48
2.0
  5
124
 10
3.496047
 20
0.5912
 30
0.0
 40
0.0
 41
0.0
  0
VERTEX
  8
SCREEN
  6
DCAD_SOLID
 62
    16
 48
2.0
  5
125
 10
3.488138
 20
0.5912
 30
0.0
 40
0.0
 41
0.0
  0
VERTEX
  8
SCREEN
  6
DCAD_SOLID
 62
    16
 48
2.0
  5
126
 10
3.484125
 20
0.588223
 30
0.0
 40
0.0
 41
0.0
  0
VERTEX
  8
SCREEN
  6
DCAD_SOLID
 62
    16
 48
2.0
  5
127
 10
3.480169
 20
0.582363
 30
0.0
 40
0.0
 41
0.0
  0
VERTEX
  8
SCREEN
  6
DCAD_SOLID
 62
    16
 48
2.0
  5
128
 10
3.478162
 20
0.576497
 30
0.0
 40
0.0
 41
0.0
  0
VERTEX
  8
SCREEN
  6
DCAD_SOLID
 62
    16
 48
2.0
  5
129
 10
3.47616
 20
0.567573
 30
0.0
 40
0.0
 41
0.0
  0
VERTEX
  8
SCREEN
  6
DCAD_SOLID
 62
    16
 48
2.0
  5
12A
 10
3.47616
 20
0.552865
 30
0.0
 40
0.0
 41
0.0
  0
VERTEX
  8
SCREEN
  6
DCAD_SOLID
 62
    16
 48
2.0
  5
12B
 10
3.478162
 20
0.544022
 30
0.0
 40
0.0
 41
0.0
  0
VERTEX
  8
SCREEN
  6
DCAD_SOLID
 62
    16
 48
2.0
  5
12C
 10
3.480169
 20
0.538081
 30
0.0
 40
0.0
 41
0.0
  0
VERTEX
  8
SCREEN
  6
DCAD_SOLID
 62
    16
 48
2.0
  5
12D
 10
3.484125
 20
0.532211
 30
0.0
 40
0.0
 41
0.0
  0
VERTEX
  8
SCREEN
  6
DCAD_SOLID
 62
    16
 48
2.0
  5
12E
 10
3.488138
 20
0.529242
 30
0.0
 40
0.0
 41
0.0
  0
VERTEX
  8
SCREEN
  6
DCAD_SOLID
 62
    16
 48
2.0
  5
12F
 10
3.496047
 20
0.529242
 30
0.0
 40
0.0
 41
0.0
  0
VERTEX
  8
SCREEN
  6
DCAD_SOLID
 62
    16
 48
2.0
  5
130
 10
3.500059
 20
0.532211
 30
0.0
 40
0.0
 41
0.0
  0
VERTEX
  8
SCREEN
  6
DCAD_SOLID
 62
    16
 48
2.0
  5
131
 10
3.504016
 20
0.538081
 30
0.0
 40
0.0
 41
0.0
  0
VERTEX
  8
SCREEN
  6
DCAD_SOLID
 62
    16
 48
2.0
  5
132
 10
3.50602
 20
0.544022
 30
0.0
 40
0.0
 41
0.0
  0
SEQEND
  8
0
  5
133
  0
POLYLINE
  8
SCREEN
  6
DCAD_SOLID
 62
    16
 48
2.0
  5
134
 66
     1
 10
0.0
 20
0.0
 30
0.0
 70
   128
  0
VERTEX
  8
SCREEN
  6
DCAD_SOLID
 62
    16
 48
2.0
  5
135
 10
3.018929
 20
0.832827
 30
0.0
 40
0.0
 41
0.0
  0
VERTEX
  8
SCREEN
  6
DCAD_SOLID
 62
    16
 48
2.0
  5
136
 10
3.036086
 20
0.787832
 30
0.0
 40
0.0
 41
0.0
  0
SEQEND
  8
0
  5
137
  0
POLYLINE
  8
SCREEN
  6
DCAD_SOLID
 62
    16
 48
2.0
  5
138
 66
     1
 10
0.0
 20
0.0
 30
0.0
 70
   128
  0
VERTEX
  8
SCREEN
  6
DCAD_SOLID
 62
    16
 48
2.0
  5
139
 10
3.053183
 20
0.832827
 30
0.0
 40
0.0
 41
0.0
  0
VERTEX
  8
SCREEN
  6
DCAD_SOLID
 62
    16
 48
2.0
  5
13A
 10
3.036086
 20
0.787832
 30
0.0
 40
0.0
 41
0.0
  0
SEQEND
  8
0
  5
13B
  0
POLYLINE
  8
SCREEN
  6
DCAD_SOLID
 62
    16
 48
2.0
  5
13C
 66
     1
 10
0.0
 20
0.0
 30
0.0
 70
   128
  0
VERTEX
  8
SCREEN
  6
DCAD_SOLID
 62
    16
 48
2.0
  5
13D
 10
3.066081
 20
0.832827
 30
0.0
 40
0.0
 41
0.0
  0
VERTEX
  8
SCREEN
  6
DCAD_SOLID
 62
    16
 48
2.0
  5
13E
 10
3.066081
 20
0.787832
 30
0.0
 40
0.0
 41
0.0
  0
SEQEND
  8
0
  5
13F
  0
POLYLINE
  8
SCREEN
  6
DCAD_SOLID
 62
    16
 48
2.0
  5
140
 66
     1
 10
0.0
 20
0.0
 30
0.0
 70
   128
  0
VERTEX
  8
SCREEN
  6
DCAD_SOLID
 62
    16
 48
2.0
  5
141
 10
3.066081
 20
0.832827
 30
0.0
 40
0.0
 41
0.0
  0
VERTEX
  8
SCREEN
  6
DCAD_SOLID
 62
    16
 48
2.0
  5
142
 10
3.093916
 20
0.832827
 30
0.0
 40
0.0
 41
0.0
  0
SEQEND
  8
0
  5
143
  0
POLYLINE
  8
SCREEN
  6
DCAD_SOLID
 62
    16
 48
2.0
  5
144
 66
     1
 10
0.0
 20
0.0
 30
0.0
 70
   128
  0
VERTEX
  8
SCREEN
  6
DCAD_SOLID
 62
    16
 48
2.0
  5
145
 10
3.066081
 20
0.811411
 30
0.0
 40
0.0
 41
0.0
  0
VERTEX
  8
SCREEN
  6
DCAD_SOLID
 62
    16
 48
2.0
  5
146
 10
3.083178
 20
0.811411
 30
0.0
 40
0.0
 41
0.0
  0
SEQEND
  8
0
  5
147
  0
POLYLINE
  8
SCREEN
  6
DCAD_SOLID
 62
    16
 48
2.0
  5
148
 66
     1
 10
0.0
 20
0.0
 30
0.0
 70
   128
  0
VERTEX
  8
SCREEN
  6
DCAD_SOLID
 62
    16
 48
2.0
  5
149
 10
3.066081
 20
0.787832
 30
0.0
 40
0.0
 41
0.0
  0
VERTEX
  8
SCREEN
  6
DCAD_SOLID
 62
    16
 48
2.0
  5
14A
 10
3.093916
 20
0.787832
 30
0.0
 40
0.0
 41
0.0
  0
SEQEND
  8
0
  5
14B
  0
POLYLINE
  8
SCREEN
  6
DCAD_SOLID
 62
    16
 48
2.0
  5
14C
 66
     1
 10
0.0
 20
0.0
 30
0.0
 70
   128
  0
VERTEX
  8
SCREEN
  6
DCAD_SOLID
 62
    16
 48
2.0
  5
14D
 10
3.108914
 20
0.832827
 30
0.0
 40
0.0
 41
0.0
  0
VERTEX
  8
SCREEN
  6
DCAD_SOLID
 62
    16
 48
2.0
  5
14E
 10
3.108914
 20
0.787832
 30
0.0
 40
0.0
 41
0.0
  0
SEQEND
  8
0
  5
14F
  0
POLYLINE
  8
SCREEN
  6
DCAD_SOLID
 62
    16
 48
2.0
  5
150
 66
     1
 10
0.0
 20
0.0
 30
0.0
 70
   128
  0
VERTEX
  8
SCREEN
  6
DCAD_SOLID
 62
    16
 48
2.0
  5
151
 10
3.108914
 20
0.832827
 30
0.0
 40
0.0
 41
0.0
  0
VERTEX
  8
SCREEN
  6
DCAD_SOLID
 62
    16
 48
2.0
  5
152
 10
3.128172
 20
0.832827
 30
0.0
 40
0.0
 41
0.0
  0
VERTEX
  8
SCREEN
  6
DCAD_SOLID
 62
    16
 48
2.0
  5
153
 10
3.13465
 20
0.830729
 30
0.0
 40
0.0
 41
0.0
  0
VERTEX
  8
SCREEN
  6
DCAD_SOLID
 62
    16
 48
2.0
  5
154
 10
3.13675
 20
0.828569
 30
0.0
 40
0.0
 41
0.0
  0
VERTEX
  8
SCREEN
  6
DCAD_SOLID
 62
    16
 48
2.0
  5
155
 10
3.138911
 20
0.824247
 30
0.0
 40
0.0
 41
0.0
  0
VERTEX
  8
SCREEN
  6
DCAD_SOLID
 62
    16
 48
2.0
  5
156
 10
3.138911
 20
0.81999
 30
0.0
 40
0.0
 41
0.0
  0
VERTEX
  8
SCREEN
  6
DCAD_SOLID
 62
    16
 48
2.0
  5
157
 10
3.13675
 20
0.815729
 30
0.0
 40
0.0
 41
0.0
  0
VERTEX
  8
SCREEN
  6
DCAD_SOLID
 62
    16
 48
2.0
  5
158
 10
3.13465
 20
0.81357
 30
0.0
 40
0.0
 41
0.0
  0
VERTEX
  8
SCREEN
  6
DCAD_SOLID
 62
    16
 48
2.0
  5
159
 10
3.128172
 20
0.811411
 30
0.0
 40
0.0
 41
0.0
  0
VERTEX
  8
SCREEN
  6
DCAD_SOLID
 62
    16
 48
2.0
  5
15A
 10
3.108914
 20
0.811411
 30
0.0
 40
0.0
 41
0.0
  0
SEQEND
  8
0
  5
15B
  0
POLYLINE
  8
SCREEN
  6
DCAD_SOLID
 62
    16
 48
2.0
  5
15C
 66
     1
 10
0.0
 20
0.0
 30
0.0
 70
   128
  0
VERTEX
  8
SCREEN
  6
DCAD_SOLID
 62
    16
 48
2.0
  5
15D
 10
3.123911
 20
0.811411
 30
0.0
 40
0.0
 41
0.0
  0
VERTEX
  8
SCREEN
  6
DCAD_SOLID
 62
    16
 48
2.0
  5
15E
 10
3.138911
 20
0.787832
 30
0.0
 40
0.0
 41
0.0
  0
SEQEND
  8
0
  5
15F
  0
POLYLINE
  8
SCREEN
  6
DCAD_SOLID
 62
    16
 48
2.0
  5
160
 66
     1
 10
0.0
 20
0.0
 30
0.0
 70
   128
  0
VERTEX
  8
SCREEN
  6
DCAD_SOLID
 62
    16
 48
2.0
  5
161
 10
3.392139
 20
0.945139
 30
0.0
 40
0.0
 41
0.0
  0
VERTEX
  8
SCREEN
  6
DCAD_SOLID
 62
    16
 48
2.0
  5
162
 10
3.392139
 20
0.947226
 30
0.0
 40
0.0
 41
0.0
  0
VERTEX
  8
SCREEN
  6
DCAD_SOLID
 62
    16
 48
2.0
  5
163
 10
3.394704
 20
0.951414
 30
0.0
 40
0.0
 41
0.0
  0
VERTEX
  8
SCREEN
  6
DCAD_SOLID
 62
    16
 48
2.0
  5
164
 10
3.397268
 20
0.953505
 30
0.0
 40
0.0
 41
0.0
  0
VERTEX
  8
SCREEN
  6
DCAD_SOLID
 62
    16
 48
2.0
  5
165
 10
3.402395
 20
0.955599
 30
0.0
 40
0.0
 41
0.0
  0
VERTEX
  8
SCREEN
  6
DCAD_SOLID
 62
    16
 48
2.0
  5
166
 10
3.412641
 20
0.955599
 30
0.0
 40
0.0
 41
0.0
  0
VERTEX
  8
SCREEN
  6
DCAD_SOLID
 62
    16
 48
2.0
  5
167
 10
3.417768
 20
0.953505
 30
0.0
 40
0.0
 41
0.0
  0
VERTEX
  8
SCREEN
  6
DCAD_SOLID
 62
    16
 48
2.0
  5
168
 10
3.420333
 20
0.951414
 30
0.0
 40
0.0
 41
0.0
  0
VERTEX
  8
SCREEN
  6
DCAD_SOLID
 62
    16
 48
2.0
  5
169
 10
3.422899
 20
0.947226
 30
0.0
 40
0.0
 41
0.0
  0
VERTEX
  8
SCREEN
  6
DCAD_SOLID
 62
    16
 48
2.0
  5
16A
 10
3.422899
 20
0.943041
 30
0.0
 40
0.0
 41
0.0
  0
VERTEX
  8
SCREEN
  6
DCAD_SOLID
 62
    16
 48
2.0
  5
16B
 10
3.420333
 20
0.938856
 30
0.0
 40
0.0
 41
0.0
  0
VERTEX
  8
SCREEN
  6
DCAD_SOLID
 62
    16
 48
2.0
  5
16C
 10
3.415206
 20
0.932581
 30
0.0
 40
0.0
 41
0.0
  0
VERTEX
  8
SCREEN
  6
DCAD_SOLID
 62
    16
 48
2.0
  5
16D
 10
3.389577
 20
0.911665
 30
0.0
 40
0.0
 41
0.0
  0
VERTEX
  8
SCREEN
  6
DCAD_SOLID
 62
    16
 48
2.0
  5
16E
 10
3.425458
 20
0.911665
 30
0.0
 40
0.0
 41
0.0
  0
SEQEND
  8
0
  5
16F
  0
POLYLINE
  8
SCREEN
  6
DCAD_SOLID
 62
    16
 48
2.0
  5
170
 66
     1
 10
0.0
 20
0.0
 30
0.0
 70
   129
  0
VERTEX
  8
SCREEN
  6
DCAD_SOLID
 62
    16
 48
2.0
  5
171
 10
3.242977
 20
0.787953
 30
0.0
 40
0.0
 41
0.0
  0
VERTEX
  8
SCREEN
  6
DCAD_SOLID
 62
    16
 48
2.0
  5
172
 10
3.24011
 20
0.78473
 30
0.0
 40
0.0
 41
0.0
  0
VERTEX
  8
SCREEN
  6
DCAD_SOLID
 62
    16
 48
2.0
  5
173
 10
3.242977
 20
0.78151
 30
0.0
 40
0.0
 41
0.0
  0
VERTEX
  8
SCREEN
  6
DCAD_SOLID
 62
    16
 48
2.0
  5
174
 10
3.245763
 20
0.78473
 30
0.0
 40
0.0
 41
0.0
  0
VERTEX
  8
SCREEN
  6
DCAD_SOLID
 62
    16
 48
2.0
  5
175
 10
3.242977
 20
0.787953
 30
0.0
 40
0.0
 41
0.0
  0
SEQEND
  8
0
  5
176
  0
POLYLINE
  8
SCREEN
  6
DCAD_SOLID
 62
    16
 48
2.0
  5
177
 66
     1
 10
0.0
 20
0.0
 30
0.0
 70
   128
  0
VERTEX
  8
SCREEN
  6
DCAD_SOLID
 62
    16
 48
2.0
  5
178
 10
3.133371
 20
0.489718
 30
0.0
 40
0.0
 41
0.0
  0
VERTEX
  8
SCREEN
  6
DCAD_SOLID
 62
    16
 48
2.0
  5
179
 10
3.147724
 20
0.476023
 30
0.0
 40
0.0
 41
0.0
  0
SEQEND
  8
0
  5
17A
  0
POLYLINE
  8
SCREEN
  6
DCAD_SOLID
 62
    16
 48
2.0
  5
17B
 66
     1
 10
0.0
 20
0.0
 30
0.0
 70
   128
  0
VERTEX
  8
SCREEN
  6
DCAD_SOLID
 62
    16
 48
2.0
  5
17C
 10
3.147724
 20
0.476023
 30
0.0
 40
0.0
 41
0.0
  0
VERTEX
  8
SCREEN
  6
DCAD_SOLID
 62
    16
 48
2.0
  5
17D
 10
3.147724
 20
0.4537
 30
0.0
 40
0.0
 41
0.0
  0
SEQEND
  8
0
  5
17E
  0
POLYLINE
  8
SCREEN
  6
DCAD_SOLID
 62
    16
 48
2.0
  5
17F
 66
     1
 10
0.0
 20
0.0
 30
0.0
 70
   128
  0
VERTEX
  8
SCREEN
  6
DCAD_SOLID
 62
    16
 48
2.0
  5
180
 10
3.147724
 20
0.4537
 30
0.0
 40
0.0
 41
0.0
  0
VERTEX
  8
SCREEN
  6
DCAD_SOLID
 62
    16
 48
2.0
  5
181
 10
3.133371
 20
0.440006
 30
0.0
 40
0.0
 41
0.0
  0
SEQEND
  8
0
  5
182
  0
POLYLINE
  8
SCREEN
  6
DCAD_SOLID
 62
    16
 48
2.0
  5
183
 66
     1
 10
0.0
 20
0.0
 30
0.0
 70
   128
  0
VERTEX
  8
SCREEN
  6
DCAD_SOLID
 62
    16
 48
2.0
  5
184
 10
3.133371
 20
0.440006
 30
0.0
 40
0.0
 41
0.0
  0
VERTEX
  8
SCREEN
  6
DCAD_SOLID
 62
    16
 48
2.0
  5
185
 10
3.099632
 20
0.440006
 30
0.0
 40
0.0
 41
0.0
  0
SEQEND
  8
0
  5
186
  0
POLYLINE
  8
SCREEN
  6
DCAD_SOLID
 62
    16
 48
2.0
  5
187
 66
     1
 10
0.0
 20
0.0
 30
0.0
 70
   128
  0
VERTEX
  8
SCREEN
  6
DCAD_SOLID
 62
    16
 48
2.0
  5
188
 10
3.099632
 20
0.440006
 30
0.0
 40
0.0
 41
0.0
  0
VERTEX
  8
SCREEN
  6
DCAD_SOLID
 62
    16
 48
2.0
  5
189
 10
3.099632
 20
0.410411
 30
0.0
 40
0.0
 41
0.0
  0
SEQEND
  8
0
  5
18A
  0
POLYLINE
  8
SCREEN
  6
DCAD_SOLID
 62
    16
 48
2.0
  5
18B
 66
     1
 10
0.0
 20
0.0
 30
0.0
 70
   128
  0
VERTEX
  8
SCREEN
  6
DCAD_SOLID
 62
    16
 48
2.0
  5
18C
 10
3.099632
 20
0.410411
 30
0.0
 40
0.0
 41
0.0
  0
VERTEX
  8
SCREEN
  6
DCAD_SOLID
 62
    16
 48
2.0
  5
18D
 10
3.104974
 20
0.410411
 30
0.0
 40
0.0
 41
0.0
  0
SEQEND
  8
0
  5
18E
  0
POLYLINE
  8
SCREEN
  6
DCAD_SOLID
 62
    16
 48
2.0
  5
18F
 66
     1
 10
0.0
 20
0.0
 30
0.0
 70
   128
  0
VERTEX
  8
SCREEN
  6
DCAD_SOLID
 62
    16
 48
2.0
  5
190
 10
3.104974
 20
0.410411
 30
0.0
 40
0.0
 41
0.0
  0
VERTEX
  8
SCREEN
  6
DCAD_SOLID
 62
    16
 48
2.0
  5
191
 10
3.104974
 20
0.382002
 30
0.0
 40
0.0
 41
0.0
  0
SEQEND
  8
0
  5
192
  0
POLYLINE
  8
SCREEN
  6
DCAD_SOLID
 62
    16
 48
2.0
  5
193
 66
     1
 10
0.0
 20
0.0
 30
0.0
 70
   128
  0
VERTEX
  8
SCREEN
  6
DCAD_SOLID
 62
    16
 48
2.0
  5
194
 10
3.104974
 20
0.382002
 30
0.0
 40
0.0
 41
0.0
  0
VERTEX
  8
SCREEN
  6
DCAD_SOLID
 62
    16
 48
2.0
  5
195
 10
3.066234
 20
0.382002
 30
0.0
 40
0.0
 41
0.0
  0
SEQEND
  8
0
  5
196
  0
POLYLINE
  8
SCREEN
  6
DCAD_SOLID
 62
    16
 48
2.0
  5
197
 66
     1
 10
0.0
 20
0.0
 30
0.0
 70
   128
  0
VERTEX
  8
SCREEN
  6
DCAD_SOLID
 62
    16
 48
2.0
  5
198
 10
3.066234
 20
0.382002
 30
0.0
 40
0.0
 41
0.0
  0
VERTEX
  8
SCREEN
  6
DCAD_SOLID
 62
    16
 48
2.0
  5
199
 10
3.066234
 20
0.410411
 30
0.0
 40
0.0
 41
0.0
  0
SEQEND
  8
0
  5
19A
  0
POLYLINE
  8
SCREEN
  6
DCAD_SOLID
 62
    16
 48
2.0
  5
19B
 66
     1
 10
0.0
 20
0.0
 30
0.0
 70
   128
  0
VERTEX
  8
SCREEN
  6
DCAD_SOLID
 62
    16
 48
2.0
  5
19C
 10
3.066234
 20
0.410411
 30
0.0
 40
0.0
 41
0.0
  0
VERTEX
  8
SCREEN
  6
DCAD_SOLID
 62
    16
 48
2.0
  5
19D
 10
3.074249
 20
0.410411
 30
0.0
 40
0.0
 41
0.0
  0
SEQEND
  8
0
  5
19E
  0
POLYLINE
  8
SCREEN
  6
DCAD_SOLID
 62
    16
 48
2.0
  5
19F
 66
     1
 10
0.0
 20
0.0
 30
0.0
 70
   128
  0
VERTEX
  8
SCREEN
  6
DCAD_SOLID
 62
    16
 48
2.0
  5
1A0
 10
3.074249
 20
0.410411
 30
0.0
 40
0.0
 41
0.0
  0
VERTEX
  8
SCREEN
  6
DCAD_SOLID
 62
    16
 48
2.0
  5
1A1
 10
3.074249
 20
0.46723
 30
0.0
 40
0.0
 41
0.0
  0
SEQEND
  8
0
  5
1A2
  0
POLYLINE
  8
SCREEN
  6
DCAD_SOLID
 62
    16
 48
2.0
  5
1A3
 66
     1
 10
0.0
 20
0.0
 30
0.0
 70
   128
  0
VERTEX
  8
SCREEN
  6
DCAD_SOLID
 62
    16
 48
2.0
  5
1A4
 10
3.074249
 20
0.46723
 30
0.0
 40
0.0
 41
0.0
  0
VERTEX
  8
SCREEN
  6
DCAD_SOLID
 62
    16
 48
2.0
  5
1A5
 10
3.064899
 20
0.46723
 30
0.0
 40
0.0
 41
0.0
  0
SEQEND
  8
0
  5
1A6
  0
POLYLINE
  8
SCREEN
  6
DCAD_SOLID
 62
    16
 48
2.0
  5
1A7
 66
     1
 10
0.0
 20
0.0
 30
0.0
 70
   128
  0
VERTEX
  8
SCREEN
  6
DCAD_SOLID
 62
    16
 48
2.0
  5
1A8
 10
3.064899
 20
0.489718
 30
0.0
 40
0.0
 41
0.0
  0
VERTEX
  8
SCREEN
  6
DCAD_SOLID
 62
    16
 48
2.0
  5
1A9
 10
3.133371
 20
0.489718
 30
0.0
 40
0.0
 41
0.0
  0
SEQEND
  8
0
  5
1AA
  0
POLYLINE
  8
SCREEN
  6
DCAD_SOLID
 62
    16
 48
2.0
  5
1AB
 66
     1
 10
0.0
 20
0.0
 30
0.0
 70
   128
  0
VERTEX
  8
SCREEN
  6
DCAD_SOLID
 62
    16
 48
2.0
  5
1AC
 10
3.064899
 20
0.489718
 30
0.0
 40
0.0
 41
0.0
  0
VERTEX
  8
SCREEN
  6
DCAD_SOLID
 62
    16
 48
2.0
  5
1AD
 10
3.064899
 20
0.46723
 30
0.0
 40
0.0
 41
0.0
  0
SEQEND
  8
0
  5
1AE
  0
POLYLINE
  8
SCREEN
  6
DCAD_SOLID
 62
    16
 48
2.0
  5
1AF
 66
     1
 10
0.0
 20
0.0
 30
0.0
 70
   129
  0
VERTEX
  8
SCREEN
  6
DCAD_SOLID
 62
    16
 48
2.0
  5
1B0
 10
3.099632
 20
0.471962
 30
0.0
 40
0.0
 41
0.0
  0
VERTEX
  8
SCREEN
  6
DCAD_SOLID
 62
    16
 48
2.0
  5
1B1
 10
3.123677
 20
0.471962
 30
0.0
 40
0.0
 41
0.0
  0
VERTEX
  8
SCREEN
  6
DCAD_SOLID
 62
    16
 48
2.0
  5
1B2
 10
3.123677
 20
0.456574
 30
0.0
 40
0.0
 41
0.0
  0
VERTEX
  8
SCREEN
  6
DCAD_SOLID
 62
    16
 48
2.0
  5
1B3
 10
3.099632
 20
0.456574
 30
0.0
 40
0.0
 41
0.0
  0
VERTEX
  8
SCREEN
  6
DCAD_SOLID
 62
    16
 48
2.0
  5
1B4
 10
3.099632
 20
0.471962
 30
0.0
 40
0.0
 41
0.0
  0
SEQEND
  8
0
  5
1B5
  0
POLYLINE
  8
SCREEN
  6
DCAD_SOLID
 62
    16
 48
2.0
  5
1B6
 66
     1
 10
0.0
 20
0.0
 30
0.0
 70
   129
  0
VERTEX
  8
SCREEN
  6
DCAD_SOLID
 62
    16
 48
2.0
  5
1B7
 10
3.16509
 20
0.489718
 30
0.0
 40
0.0
 41
0.0
  0
VERTEX
  8
SCREEN
  6
DCAD_SOLID
 62
    16
 48
2.0
  5
1B8
 10
3.202497
 20
0.489718
 30
0.0
 40
0.0
 41
0.0
  0
VERTEX
  8
SCREEN
  6
DCAD_SOLID
 62
    16
 48
2.0
  5
1B9
 10
3.202497
 20
0.463678
 30
0.0
 40
0.0
 41
0.0
  0
VERTEX
  8
SCREEN
  6
DCAD_SOLID
 62
    16
 48
2.0
  5
1BA
 10
3.193144
 20
0.463678
 30
0.0
 40
0.0
 41
0.0
  0
VERTEX
  8
SCREEN
  6
DCAD_SOLID
 62
    16
 48
2.0
  5
1BB
 10
3.193144
 20
0.411596
 30
0.0
 40
0.0
 41
0.0
  0
VERTEX
  8
SCREEN
  6
DCAD_SOLID
 62
    16
 48
2.0
  5
1BC
 10
3.202497
 20
0.411596
 30
0.0
 40
0.0
 41
0.0
  0
VERTEX
  8
SCREEN
  6
DCAD_SOLID
 62
    16
 48
2.0
  5
1BD
 10
3.202497
 20
0.382002
 30
0.0
 40
0.0
 41
0.0
  0
VERTEX
  8
SCREEN
  6
DCAD_SOLID
 62
    16
 48
2.0
  5
1BE
 10
3.16509
 20
0.382002
 30
0.0
 40
0.0
 41
0.0
  0
VERTEX
  8
SCREEN
  6
DCAD_SOLID
 62
    16
 48
2.0
  5
1BF
 10
3.16509
 20
0.410411
 30
0.0
 40
0.0
 41
0.0
  0
VERTEX
  8
SCREEN
  6
DCAD_SOLID
 62
    16
 48
2.0
  5
1C0
 10
3.173107
 20
0.410411
 30
0.0
 40
0.0
 41
0.0
  0
VERTEX
  8
SCREEN
  6
DCAD_SOLID
 62
    16
 48
2.0
  5
1C1
 10
3.173107
 20
0.463678
 30
0.0
 40
0.0
 41
0.0
  0
VERTEX
  8
SCREEN
  6
DCAD_SOLID
 62
    16
 48
2.0
  5
1C2
 10
3.16509
 20
0.463678
 30
0.0
 40
0.0
 41
0.0
  0
VERTEX
  8
SCREEN
  6
DCAD_SOLID
 62
    16
 48
2.0
  5
1C3
 10
3.16509
 20
0.489718
 30
0.0
 40
0.0
 41
0.0
  0
SEQEND
  8
0
  5
1C4
  0
POLYLINE
  8
SCREEN
  6
DCAD_SOLID
 62
    16
 48
2.0
  5
1C5
 66
     1
 10
0.0
 20
0.0
 30
0.0
 70
   129
  0
VERTEX
  8
SCREEN
  6
DCAD_SOLID
 62
    16
 48
2.0
  5
1C6
 10
3.09028
 20
0.376083
 30
0.0
 40
0.0
 41
0.0
  0
VERTEX
  8
SCREEN
  6
DCAD_SOLID
 62
    16
 48
2.0
  5
1C7
 10
3.09028
 20
0.376083
 30
0.0
 40
0.0
 41
0.0
  0
SEQEND
  8
0
  5
1C8
  0
POLYLINE
  8
SCREEN
  6
DCAD_SOLID
 62
    16
 48
2.0
  5
1C9
 66
     1
 10
0.0
 20
0.0
 30
0.0
 70
   128
  0
VERTEX
  8
SCREEN
  6
DCAD_SOLID
 62
    16
 48
2.0
  5
1CA
 10
3.089332
 20
0.376088
 30
0.0
 40
0.0
 41
0.0
  0
VERTEX
  8
SCREEN
  6
DCAD_SOLID
 62
    16
 48
2.0
  5
1CB
 10
3.093331
 20
0.372545
 30
0.0
 40
0.0
 41
0.0
  0
VERTEX
  8
SCREEN
  6
DCAD_SOLID
 62
    16
 48
2.0
  5
1CC
 10
3.089695
 20
0.374642
 30
0.0
 40
0.0
 41
0.0
  0
VERTEX
  8
SCREEN
  6
DCAD_SOLID
 62
    16
 48
2.0
  5
1CD
 10
3.089695
 20
0.375124
 30
0.0
 40
0.0
 41
0.0
  0
SEQEND
  8
0
  5
1CE
  0
POLYLINE
  8
SCREEN
  6
DCAD_SOLID
 62
    16
 48
2.0
  5
1CF
 66
     1
 10
0.0
 20
0.0
 30
0.0
 70
   128
  0
VERTEX
  8
SCREEN
  6
DCAD_SOLID
 62
    16
 48
2.0
  5
1D0
 10
3.125141
 20
0.366908
 30
0.0
 40
0.0
 41
0.0
  0
VERTEX
  8
SCREEN
  6
DCAD_SOLID
 62
    16
 48
2.0
  5
1D1
 10
3.127686
 20
0.363848
 30
0.0
 40
0.0
 41
0.0
  0
VERTEX
  8
SCREEN
  6
DCAD_SOLID
 62
    16
 48
2.0
  5
1D2
 10
3.132048
 20
0.364172
 30
0.0
 40
0.0
 41
0.0
  0
VERTEX
  8
SCREEN
  6
DCAD_SOLID
 62
    16
 48
2.0
  5
1D3
 10
3.136411
 20
0.364172
 30
0.0
 40
0.0
 41
0.0
  0
VERTEX
  8
SCREEN
  6
DCAD_SOLID
 62
    16
 48
2.0
  5
1D4
 10
3.140773
 20
0.364011
 30
0.0
 40
0.0
 41
0.0
  0
VERTEX
  8
SCREEN
  6
DCAD_SOLID
 62
    16
 48
2.0
  5
1D5
 10
3.145136
 20
0.362883
 30
0.0
 40
0.0
 41
0.0
  0
VERTEX
  8
SCREEN
  6
DCAD_SOLID
 62
    16
 48
2.0
  5
1D6
 10
3.147683
 20
0.359661
 30
0.0
 40
0.0
 41
0.0
  0
VERTEX
  8
SCREEN
  6
DCAD_SOLID
 62
    16
 48
2.0
  5
1D7
 10
3.149135
 20
0.355796
 30
0.0
 40
0.0
 41
0.0
  0
VERTEX
  8
SCREEN
  6
DCAD_SOLID
 62
    16
 48
2.0
  5
1D8
 10
3.153678
 20
0.356117
 30
0.0
 40
0.0
 41
0.0
  0
VERTEX
  8
SCREEN
  6
DCAD_SOLID
 62
    16
 48
2.0
  5
1D9
 10
3.153862
 20
0.359983
 30
0.0
 40
0.0
 41
0.0
  0
VERTEX
  8
SCREEN
  6
DCAD_SOLID
 62
    16
 48
2.0
  5
1DA
 10
3.157134
 20
0.362397
 30
0.0
 40
0.0
 41
0.0
  0
VERTEX
  8
SCREEN
  6
DCAD_SOLID
 62
    16
 48
2.0
  5
1DB
 10
3.158588
 20
0.366427
 30
0.0
 40
0.0
 41
0.0
  0
VERTEX
  8
SCREEN
  6
DCAD_SOLID
 62
    16
 48
2.0
  5
1DC
 10
3.160951
 20
0.369645
 30
0.0
 40
0.0
 41
0.0
  0
VERTEX
  8
SCREEN
  6
DCAD_SOLID
 62
    16
 48
2.0
  5
1DD
 10
3.165314
 20
0.37142
 30
0.0
 40
0.0
 41
0.0
  0
VERTEX
  8
SCREEN
  6
DCAD_SOLID
 62
    16
 48
2.0
  5
1DE
 10
3.169494
 20
0.372545
 30
0.0
 40
0.0
 41
0.0
  0
VERTEX
  8
SCREEN
  6
DCAD_SOLID
 62
    16
 48
2.0
  5
1DF
 10
3.173493
 20
0.374477
 30
0.0
 40
0.0
 41
0.0
  0
VERTEX
  8
SCREEN
  6
DCAD_SOLID
 62
    16
 48
2.0
  5
1E0
 10
3.176038
 20
0.375767
 30
0.0
 40
0.0
 41
0.0
  0
SEQEND
  8
0
  5
1E1
  0
POLYLINE
  8
SCREEN
  6
DCAD_SOLID
 62
    16
 48
2.0
  5
1E2
 66
     1
 10
0.0
 20
0.0
 30
0.0
 70
   128
  0
VERTEX
  8
SCREEN
  6
DCAD_SOLID
 62
    16
 48
2.0
  5
1E3
 10
3.185671
 20
0.375445
 30
0.0
 40
0.0
 41
0.0
  0
VERTEX
  8
SCREEN
  6
DCAD_SOLID
 62
    16
 48
2.0
  5
1E4
 10
3.183671
 20
0.37174
 30
0.0
 40
0.0
 41
0.0
  0
VERTEX
  8
SCREEN
  6
DCAD_SOLID
 62
    16
 48
2.0
  5
1E5
 10
3.1804
 20
0.36868
 30
0.0
 40
0.0
 41
0.0
  0
VERTEX
  8
SCREEN
  6
DCAD_SOLID
 62
    16
 48
2.0
  5
1E6
 10
3.178038
 20
0.365459
 30
0.0
 40
0.0
 41
0.0
  0
VERTEX
  8
SCREEN
  6
DCAD_SOLID
 62
    16
 48
2.0
  5
1E7
 10
3.175857
 20
0.362076
 30
0.0
 40
0.0
 41
0.0
  0
VERTEX
  8
SCREEN
  6
DCAD_SOLID
 62
    16
 48
2.0
  5
1E8
 10
3.178946
 20
0.364657
 30
0.0
 40
0.0
 41
0.0
  0
VERTEX
  8
SCREEN
  6
DCAD_SOLID
 62
    16
 48
2.0
  5
1E9
 10
3.181853
 20
0.367876
 30
0.0
 40
0.0
 41
0.0
  0
VERTEX
  8
SCREEN
  6
DCAD_SOLID
 62
    16
 48
2.0
  5
1EA
 10
3.18549
 20
0.370131
 30
0.0
 40
0.0
 41
0.0
  0
VERTEX
  8
SCREEN
  6
DCAD_SOLID
 62
    16
 48
2.0
  5
1EB
 10
3.189307
 20
0.372224
 30
0.0
 40
0.0
 41
0.0
  0
VERTEX
  8
SCREEN
  6
DCAD_SOLID
 62
    16
 48
2.0
  5
1EC
 10
3.19367
 20
0.371741
 30
0.0
 40
0.0
 41
0.0
  0
VERTEX
  8
SCREEN
  6
DCAD_SOLID
 62
    16
 48
2.0
  5
1ED
 10
3.19567
 20
0.375606
 30
0.0
 40
0.0
 41
0.0
  0
VERTEX
  8
SCREEN
  6
DCAD_SOLID
 62
    16
 48
2.0
  5
1EE
 10
3.196395
 20
0.377056
 30
0.0
 40
0.0
 41
0.0
  0
SEQEND
  8
0
  5
1EF
  0
POLYLINE
  8
SCREEN
  6
DCAD_SOLID
 62
    16
 48
2.0
  5
1F0
 66
     1
 10
0.0
 20
0.0
 30
0.0
 70
   128
  0
VERTEX
  8
SCREEN
  6
DCAD_SOLID
 62
    16
 48
2.0
  5
1F1
 10
3.209119
 20
0.382692
 30
0.0
 40
0.0
 41
0.0
  0
VERTEX
  8
SCREEN
  6
DCAD_SOLID
 62
    16
 48
2.0
  5
1F2
 10
3.212393
 20
0.385432
 30
0.0
 40
0.0
 41
0.0
  0
VERTEX
  8
SCREEN
  6
DCAD_SOLID
 62
    16
 48
2.0
  5
1F3
 10
3.216392
 20
0.387526
 30
0.0
 40
0.0
 41
0.0
  0
VERTEX
  8
SCREEN
  6
DCAD_SOLID
 62
    16
 48
2.0
  5
1F4
 10
3.219662
 20
0.390101
 30
0.0
 40
0.0
 41
0.0
  0
VERTEX
  8
SCREEN
  6
DCAD_SOLID
 62
    16
 48
2.0
  5
1F5
 10
3.221663
 20
0.393966
 30
0.0
 40
0.0
 41
0.0
  0
VERTEX
  8
SCREEN
  6
DCAD_SOLID
 62
    16
 48
2.0
  5
1F6
 10
3.223844
 20
0.397348
 30
0.0
 40
0.0
 41
0.0
  0
VERTEX
  8
SCREEN
  6
DCAD_SOLID
 62
    16
 48
2.0
  5
1F7
 10
3.225662
 20
0.400731
 30
0.0
 40
0.0
 41
0.0
  0
VERTEX
  8
SCREEN
  6
DCAD_SOLID
 62
    16
 48
2.0
  5
1F8
 10
3.230024
 20
0.402827
 30
0.0
 40
0.0
 41
0.0
  0
VERTEX
  8
SCREEN
  6
DCAD_SOLID
 62
    16
 48
2.0
  5
1F9
 10
3.231298
 20
0.406853
 30
0.0
 40
0.0
 41
0.0
  0
VERTEX
  8
SCREEN
  6
DCAD_SOLID
 62
    16
 48
2.0
  5
1FA
 10
3.231298
 20
0.410718
 30
0.0
 40
0.0
 41
0.0
  0
VERTEX
  8
SCREEN
  6
DCAD_SOLID
 62
    16
 48
2.0
  5
1FB
 10
3.227298
 20
0.408625
 30
0.0
 40
0.0
 41
0.0
  0
VERTEX
  8
SCREEN
  6
DCAD_SOLID
 62
    16
 48
2.0
  5
1FC
 10
3.224754
 20
0.405242
 30
0.0
 40
0.0
 41
0.0
  0
VERTEX
  8
SCREEN
  6
DCAD_SOLID
 62
    16
 48
2.0
  5
1FD
 10
3.222026
 20
0.402182
 30
0.0
 40
0.0
 41
0.0
  0
VERTEX
  8
SCREEN
  6
DCAD_SOLID
 62
    16
 48
2.0
  5
1FE
 10
3.219299
 20
0.399123
 30
0.0
 40
0.0
 41
0.0
  0
VERTEX
  8
SCREEN
  6
DCAD_SOLID
 62
    16
 48
2.0
  5
1FF
 10
3.220391
 20
0.402827
 30
0.0
 40
0.0
 41
0.0
  0
VERTEX
  8
SCREEN
  6
DCAD_SOLID
 62
    16
 48
2.0
  5
200
 10
3.222936
 20
0.406049
 30
0.0
 40
0.0
 41
0.0
  0
VERTEX
  8
SCREEN
  6
DCAD_SOLID
 62
    16
 48
2.0
  5
201
 10
3.2233
 20
0.409911
 30
0.0
 40
0.0
 41
0.0
  0
VERTEX
  8
SCREEN
  6
DCAD_SOLID
 62
    16
 48
2.0
  5
202
 10
3.223481
 20
0.413776
 30
0.0
 40
0.0
 41
0.0
  0
VERTEX
  8
SCREEN
  6
DCAD_SOLID
 62
    16
 48
2.0
  5
203
 10
3.224025
 20
0.417644
 30
0.0
 40
0.0
 41
0.0
  0
VERTEX
  8
SCREEN
  6
DCAD_SOLID
 62
    16
 48
2.0
  5
204
 10
3.224025
 20
0.421509
 30
0.0
 40
0.0
 41
0.0
  0
VERTEX
  8
SCREEN
  6
DCAD_SOLID
 62
    16
 48
2.0
  5
205
 10
3.221663
 20
0.417966
 30
0.0
 40
0.0
 41
0.0
  0
VERTEX
  8
SCREEN
  6
DCAD_SOLID
 62
    16
 48
2.0
  5
206
 10
3.220572
 20
0.414101
 30
0.0
 40
0.0
 41
0.0
  0
VERTEX
  8
SCREEN
  6
DCAD_SOLID
 62
    16
 48
2.0
  5
207
 10
3.220026
 20
0.410235
 30
0.0
 40
0.0
 41
0.0
  0
VERTEX
  8
SCREEN
  6
DCAD_SOLID
 62
    16
 48
2.0
  5
208
 10
3.218391
 20
0.406371
 30
0.0
 40
0.0
 41
0.0
  0
VERTEX
  8
SCREEN
  6
DCAD_SOLID
 62
    16
 48
2.0
  5
209
 10
3.216573
 20
0.402506
 30
0.0
 40
0.0
 41
0.0
  0
VERTEX
  8
SCREEN
  6
DCAD_SOLID
 62
    16
 48
2.0
  5
20A
 10
3.215482
 20
0.40621
 30
0.0
 40
0.0
 41
0.0
  0
VERTEX
  8
SCREEN
  6
DCAD_SOLID
 62
    16
 48
2.0
  5
20B
 10
3.2153
 20
0.410072
 30
0.0
 40
0.0
 41
0.0
  0
VERTEX
  8
SCREEN
  6
DCAD_SOLID
 62
    16
 48
2.0
  5
20C
 10
3.212574
 20
0.407011
 30
0.0
 40
0.0
 41
0.0
  0
VERTEX
  8
SCREEN
  6
DCAD_SOLID
 62
    16
 48
2.0
  5
20D
 10
3.21112
 20
0.403146
 30
0.0
 40
0.0
 41
0.0
  0
VERTEX
  8
SCREEN
  6
DCAD_SOLID
 62
    16
 48
2.0
  5
20E
 10
3.209485
 20
0.399284
 30
0.0
 40
0.0
 41
0.0
  0
VERTEX
  8
SCREEN
  6
DCAD_SOLID
 62
    16
 48
2.0
  5
20F
 10
3.209483
 20
0.400907
 30
0.0
 40
0.0
 41
0.0
  0
VERTEX
  8
SCREEN
  6
DCAD_SOLID
 62
    16
 48
2.0
  5
210
 10
3.209302
 20
0.400731
 30
0.0
 40
0.0
 41
0.0
  0
VERTEX
  8
SCREEN
  6
DCAD_SOLID
 62
    16
 48
2.0
  5
211
 10
3.209119
 20
0.396866
 30
0.0
 40
0.0
 41
0.0
  0
VERTEX
  8
SCREEN
  6
DCAD_SOLID
 62
    16
 48
2.0
  5
212
 10
3.209485
 20
0.39284
 30
0.0
 40
0.0
 41
0.0
  0
VERTEX
  8
SCREEN
  6
DCAD_SOLID
 62
    16
 48
2.0
  5
213
 10
3.207667
 20
0.391394
 30
0.0
 40
0.0
 41
0.0
  0
SEQEND
  8
0
  5
214
  0
POLYLINE
  8
SCREEN
  6
DCAD_SOLID
 62
    16
 48
2.0
  5
215
 66
     1
 10
0.0
 20
0.0
 30
0.0
 70
   128
  0
VERTEX
  8
SCREEN
  6
DCAD_SOLID
 62
    16
 48
2.0
  5
216
 10
3.217844
 20
0.457589
 30
0.0
 40
0.0
 41
0.0
  0
VERTEX
  8
SCREEN
  6
DCAD_SOLID
 62
    16
 48
2.0
  5
217
 10
3.219481
 20
0.457589
 30
0.0
 40
0.0
 41
0.0
  0
SEQEND
  8
0
  5
218
  0
POLYLINE
  8
SCREEN
  6
DCAD_SOLID
 62
    16
 48
2.0
  5
219
 66
     1
 10
0.0
 20
0.0
 30
0.0
 70
   128
  0
VERTEX
  8
SCREEN
  6
DCAD_SOLID
 62
    16
 48
2.0
  5
21A
 10
3.219481
 20
0.457589
 30
0.0
 40
0.0
 41
0.0
  0
VERTEX
  8
SCREEN
  6
DCAD_SOLID
 62
    16
 48
2.0
  5
21B
 10
3.221843
 20
0.454045
 30
0.0
 40
0.0
 41
0.0
  0
VERTEX
  8
SCREEN
  6
DCAD_SOLID
 62
    16
 48
2.0
  5
21C
 10
3.224571
 20
0.450824
 30
0.0
 40
0.0
 41
0.0
  0
VERTEX
  8
SCREEN
  6
DCAD_SOLID
 62
    16
 48
2.0
  5
21D
 10
3.227116
 20
0.447441
 30
0.0
 40
0.0
 41
0.0
  0
VERTEX
  8
SCREEN
  6
DCAD_SOLID
 62
    16
 48
2.0
  5
21E
 10
3.228387
 20
0.443576
 30
0.0
 40
0.0
 41
0.0
  0
VERTEX
  8
SCREEN
  6
DCAD_SOLID
 62
    16
 48
2.0
  5
21F
 10
3.231298
 20
0.440679
 30
0.0
 40
0.0
 41
0.0
  0
VERTEX
  8
SCREEN
  6
DCAD_SOLID
 62
    16
 48
2.0
  5
220
 10
3.231842
 20
0.444698
 30
0.0
 40
0.0
 41
0.0
  0
VERTEX
  8
SCREEN
  6
DCAD_SOLID
 62
    16
 48
2.0
  5
221
 10
3.229116
 20
0.447601
 30
0.0
 40
0.0
 41
0.0
  0
VERTEX
  8
SCREEN
  6
DCAD_SOLID
 62
    16
 48
2.0
  5
222
 10
3.227843
 20
0.451628
 30
0.0
 40
0.0
 41
0.0
  0
VERTEX
  8
SCREEN
  6
DCAD_SOLID
 62
    16
 48
2.0
  5
223
 10
3.226025
 20
0.455329
 30
0.0
 40
0.0
 41
0.0
  0
VERTEX
  8
SCREEN
  6
DCAD_SOLID
 62
    16
 48
2.0
  5
224
 10
3.224571
 20
0.458875
 30
0.0
 40
0.0
 41
0.0
  0
VERTEX
  8
SCREEN
  6
DCAD_SOLID
 62
    16
 48
2.0
  5
225
 10
3.224207
 20
0.46274
 30
0.0
 40
0.0
 41
0.0
  0
VERTEX
  8
SCREEN
  6
DCAD_SOLID
 62
    16
 48
2.0
  5
226
 10
3.223661
 20
0.466605
 30
0.0
 40
0.0
 41
0.0
  0
VERTEX
  8
SCREEN
  6
DCAD_SOLID
 62
    16
 48
2.0
  5
227
 10
3.222573
 20
0.470309
 30
0.0
 40
0.0
 41
0.0
  0
VERTEX
  8
SCREEN
  6
DCAD_SOLID
 62
    16
 48
2.0
  5
228
 10
3.22148
 20
0.466444
 30
0.0
 40
0.0
 41
0.0
  0
VERTEX
  8
SCREEN
  6
DCAD_SOLID
 62
    16
 48
2.0
  5
229
 10
3.218754
 20
0.469505
 30
0.0
 40
0.0
 41
0.0
  0
VERTEX
  8
SCREEN
  6
DCAD_SOLID
 62
    16
 48
2.0
  5
22A
 10
3.217118
 20
0.473209
 30
0.0
 40
0.0
 41
0.0
  0
VERTEX
  8
SCREEN
  6
DCAD_SOLID
 62
    16
 48
2.0
  5
22B
 10
3.214938
 20
0.476431
 30
0.0
 40
0.0
 41
0.0
  0
VERTEX
  8
SCREEN
  6
DCAD_SOLID
 62
    16
 48
2.0
  5
22C
 10
3.212029
 20
0.479331
 30
0.0
 40
0.0
 41
0.0
  0
VERTEX
  8
SCREEN
  6
DCAD_SOLID
 62
    16
 48
2.0
  5
22D
 10
3.212574
 20
0.475463
 30
0.0
 40
0.0
 41
0.0
  0
VERTEX
  8
SCREEN
  6
DCAD_SOLID
 62
    16
 48
2.0
  5
22E
 10
3.213665
 20
0.471602
 30
0.0
 40
0.0
 41
0.0
  0
VERTEX
  8
SCREEN
  6
DCAD_SOLID
 62
    16
 48
2.0
  5
22F
 10
3.209848
 20
0.473371
 30
0.0
 40
0.0
 41
0.0
  0
VERTEX
  8
SCREEN
  6
DCAD_SOLID
 62
    16
 48
2.0
  5
230
 10
3.210029
 20
0.469341
 30
0.0
 40
0.0
 41
0.0
  0
VERTEX
  8
SCREEN
  6
DCAD_SOLID
 62
    16
 48
2.0
  5
231
 10
3.214028
 20
0.467412
 30
0.0
 40
0.0
 41
0.0
  0
VERTEX
  8
SCREEN
  6
DCAD_SOLID
 62
    16
 48
2.0
  5
232
 10
3.2153
 20
0.463708
 30
0.0
 40
0.0
 41
0.0
  0
VERTEX
  8
SCREEN
  6
DCAD_SOLID
 62
    16
 48
2.0
  5
233
 10
3.210937
 20
0.464354
 30
0.0
 40
0.0
 41
0.0
  0
VERTEX
  8
SCREEN
  6
DCAD_SOLID
 62
    16
 48
2.0
  5
234
 10
3.208394
 20
0.461129
 30
0.0
 40
0.0
 41
0.0
  0
VERTEX
  8
SCREEN
  6
DCAD_SOLID
 62
    16
 48
2.0
  5
235
 10
3.208394
 20
0.461129
 30
0.0
 40
0.0
 41
0.0
  0
SEQEND
  8
0
  5
236
  0
POLYLINE
  8
SCREEN
  6
DCAD_SOLID
 62
    16
 48
2.0
  5
237
 66
     1
 10
0.0
 20
0.0
 30
0.0
 70
   128
  0
VERTEX
  8
SCREEN
  6
DCAD_SOLID
 62
    16
 48
2.0
  5
238
 10
3.105148
 20
0.344359
 30
0.0
 40
0.0
 41
0.0
  0
VERTEX
  8
SCREEN
  6
DCAD_SOLID
 62
    16
 48
2.0
  5
239
 10
3.105148
 20
0.340497
 30
0.0
 40
0.0
 41
0.0
  0
VERTEX
  8
SCREEN
  6
DCAD_SOLID
 62
    16
 48
2.0
  5
23A
 10
3.108963
 20
0.338883
 30
0.0
 40
0.0
 41
0.0
  0
VERTEX
  8
SCREEN
  6
DCAD_SOLID
 62
    16
 48
2.0
  5
23B
 10
3.113327
 20
0.338401
 30
0.0
 40
0.0
 41
0.0
  0
VERTEX
  8
SCREEN
  6
DCAD_SOLID
 62
    16
 48
2.0
  5
23C
 10
3.117688
 20
0.338401
 30
0.0
 40
0.0
 41
0.0
  0
VERTEX
  8
SCREEN
  6
DCAD_SOLID
 62
    16
 48
2.0
  5
23D
 10
3.112417
 20
0.338722
 30
0.0
 40
0.0
 41
0.0
  0
VERTEX
  8
SCREEN
  6
DCAD_SOLID
 62
    16
 48
2.0
  5
23E
 10
3.10751
 20
0.339047
 30
0.0
 40
0.0
 41
0.0
  0
VERTEX
  8
SCREEN
  6
DCAD_SOLID
 62
    16
 48
2.0
  5
23F
 10
3.101512
 20
0.339204
 30
0.0
 40
0.0
 41
0.0
  0
VERTEX
  8
SCREEN
  6
DCAD_SOLID
 62
    16
 48
2.0
  5
240
 10
3.096057
 20
0.340336
 30
0.0
 40
0.0
 41
0.0
  0
VERTEX
  8
SCREEN
  6
DCAD_SOLID
 62
    16
 48
2.0
  5
241
 10
3.091694
 20
0.342429
 30
0.0
 40
0.0
 41
0.0
  0
VERTEX
  8
SCREEN
  6
DCAD_SOLID
 62
    16
 48
2.0
  5
242
 10
3.087514
 20
0.34388
 30
0.0
 40
0.0
 41
0.0
  0
VERTEX
  8
SCREEN
  6
DCAD_SOLID
 62
    16
 48
2.0
  5
243
 10
3.084606
 20
0.346777
 30
0.0
 40
0.0
 41
0.0
  0
VERTEX
  8
SCREEN
  6
DCAD_SOLID
 62
    16
 48
2.0
  5
244
 10
3.088605
 20
0.348709
 30
0.0
 40
0.0
 41
0.0
  0
VERTEX
  8
SCREEN
  6
DCAD_SOLID
 62
    16
 48
2.0
  5
245
 10
3.094605
 20
0.348709
 30
0.0
 40
0.0
 41
0.0
  0
VERTEX
  8
SCREEN
  6
DCAD_SOLID
 62
    16
 48
2.0
  5
246
 10
3.098238
 20
0.346777
 30
0.0
 40
0.0
 41
0.0
  0
VERTEX
  8
SCREEN
  6
DCAD_SOLID
 62
    16
 48
2.0
  5
247
 10
3.102601
 20
0.346937
 30
0.0
 40
0.0
 41
0.0
  0
VERTEX
  8
SCREEN
  6
DCAD_SOLID
 62
    16
 48
2.0
  5
248
 10
3.103147
 20
0.347098
 30
0.0
 40
0.0
 41
0.0
  0
SEQEND
  8
0
  5
249
  0
POLYLINE
  8
SCREEN
  6
DCAD_SOLID
 62
    16
 48
2.0
  5
24A
 66
     1
 10
0.0
 20
0.0
 30
0.0
 70
   128
  0
VERTEX
  8
SCREEN
  6
DCAD_SOLID
 62
    16
 48
2.0
  5
24B
 10
3.098785
 20
0.355475
 30
0.0
 40
0.0
 41
0.0
  0
VERTEX
  8
SCREEN
  6
DCAD_SOLID
 62
    16
 48
2.0
  5
24C
 10
3.102056
 20
0.35805
 30
0.0
 40
0.0
 41
0.0
  0
VERTEX
  8
SCREEN
  6
DCAD_SOLID
 62
    16
 48
2.0
  5
24D
 10
3.106419
 20
0.359015
 30
0.0
 40
0.0
 41
0.0
  0
VERTEX
  8
SCREEN
  6
DCAD_SOLID
 62
    16
 48
2.0
  5
24E
 10
3.110781
 20
0.358211
 30
0.0
 40
0.0
 41
0.0
  0
VERTEX
  8
SCREEN
  6
DCAD_SOLID
 62
    16
 48
2.0
  5
24F
 10
3.114418
 20
0.355796
 30
0.0
 40
0.0
 41
0.0
  0
VERTEX
  8
SCREEN
  6
DCAD_SOLID
 62
    16
 48
2.0
  5
250
 10
3.117688
 20
0.35306
 30
0.0
 40
0.0
 41
0.0
  0
VERTEX
  8
SCREEN
  6
DCAD_SOLID
 62
    16
 48
2.0
  5
251
 10
3.118598
 20
0.356924
 30
0.0
 40
0.0
 41
0.0
  0
VERTEX
  8
SCREEN
  6
DCAD_SOLID
 62
    16
 48
2.0
  5
252
 10
3.122778
 20
0.358693
 30
0.0
 40
0.0
 41
0.0
  0
VERTEX
  8
SCREEN
  6
DCAD_SOLID
 62
    16
 48
2.0
  5
253
 10
3.122598
 20
0.362561
 30
0.0
 40
0.0
 41
0.0
  0
VERTEX
  8
SCREEN
  6
DCAD_SOLID
 62
    16
 48
2.0
  5
254
 10
3.121686
 20
0.366426
 30
0.0
 40
0.0
 41
0.0
  0
VERTEX
  8
SCREEN
  6
DCAD_SOLID
 62
    16
 48
2.0
  5
255
 10
3.118235
 20
0.364172
 30
0.0
 40
0.0
 41
0.0
  0
VERTEX
  8
SCREEN
  6
DCAD_SOLID
 62
    16
 48
2.0
  5
256
 10
3.114598
 20
0.361915
 30
0.0
 40
0.0
 41
0.0
  0
VERTEX
  8
SCREEN
  6
DCAD_SOLID
 62
    16
 48
2.0
  5
257
 10
3.110418
 20
0.361111
 30
0.0
 40
0.0
 41
0.0
  0
VERTEX
  8
SCREEN
  6
DCAD_SOLID
 62
    16
 48
2.0
  5
258
 10
3.106056
 20
0.362561
 30
0.0
 40
0.0
 41
0.0
  0
VERTEX
  8
SCREEN
  6
DCAD_SOLID
 62
    16
 48
2.0
  5
259
 10
3.101874
 20
0.361275
 30
0.0
 40
0.0
 41
0.0
  0
VERTEX
  8
SCREEN
  6
DCAD_SOLID
 62
    16
 48
2.0
  5
25A
 10
3.09933
 20
0.358211
 30
0.0
 40
0.0
 41
0.0
  0
VERTEX
  8
SCREEN
  6
DCAD_SOLID
 62
    16
 48
2.0
  5
25B
 10
3.098057
 20
0.356279
 30
0.0
 40
0.0
 41
0.0
  0
SEQEND
  8
0
  5
25C
  0
POLYLINE
  8
SCREEN
  6
DCAD_SOLID
 62
    16
 48
2.0
  5
25D
 66
     1
 10
0.0
 20
0.0
 30
0.0
 70
   128
  0
VERTEX
  8
SCREEN
  6
DCAD_SOLID
 62
    16
 48
2.0
  5
25E
 10
3.109873
 20
0.369645
 30
0.0
 40
0.0
 41
0.0
  0
VERTEX
  8
SCREEN
  6
DCAD_SOLID
 62
    16
 48
2.0
  5
25F
 10
3.105511
 20
0.369645
 30
0.0
 40
0.0
 41
0.0
  0
VERTEX
  8
SCREEN
  6
DCAD_SOLID
 62
    16
 48
2.0
  5
260
 10
3.101329
 20
0.367876
 30
0.0
 40
0.0
 41
0.0
  0
VERTEX
  8
SCREEN
  6
DCAD_SOLID
 62
    16
 48
2.0
  5
261
 10
3.098238
 20
0.370773
 30
0.0
 40
0.0
 41
0.0
  0
VERTEX
  8
SCREEN
  6
DCAD_SOLID
 62
    16
 48
2.0
  5
262
 10
3.094241
 20
0.372545
 30
0.0
 40
0.0
 41
0.0
  0
VERTEX
  8
SCREEN
  6
DCAD_SOLID
 62
    16
 48
2.0
  5
263
 10
3.09115
 20
0.375445
 30
0.0
 40
0.0
 41
0.0
  0
VERTEX
  8
SCREEN
  6
DCAD_SOLID
 62
    16
 48
2.0
  5
264
 10
3.089332
 20
0.377217
 30
0.0
 40
0.0
 41
0.0
  0
SEQEND
  8
0
  5
265
  0
POLYLINE
  8
SCREEN
  6
DCAD_SOLID
 62
    16
 48
2.0
  5
266
 66
     1
 10
0.0
 20
0.0
 30
0.0
 70
   128
  0
VERTEX
  8
SCREEN
  6
DCAD_SOLID
 62
    16
 48
2.0
  5
267
 10
3.086243
 20
0.494309
 30
0.0
 40
0.0
 41
0.0
  0
VERTEX
  8
SCREEN
  6
DCAD_SOLID
 62
    16
 48
2.0
  5
268
 10
3.084425
 20
0.497855
 30
0.0
 40
0.0
 41
0.0
  0
VERTEX
  8
SCREEN
  6
DCAD_SOLID
 62
    16
 48
2.0
  5
269
 10
3.088605
 20
0.497209
 30
0.0
 40
0.0
 41
0.0
  0
VERTEX
  8
SCREEN
  6
DCAD_SOLID
 62
    16
 48
2.0
  5
26A
 10
3.092968
 20
0.498013
 30
0.0
 40
0.0
 41
0.0
  0
VERTEX
  8
SCREEN
  6
DCAD_SOLID
 62
    16
 48
2.0
  5
26B
 10
3.097331
 20
0.498495
 30
0.0
 40
0.0
 41
0.0
  0
VERTEX
  8
SCREEN
  6
DCAD_SOLID
 62
    16
 48
2.0
  5
26C
 10
3.101512
 20
0.499305
 30
0.0
 40
0.0
 41
0.0
  0
VERTEX
  8
SCREEN
  6
DCAD_SOLID
 62
    16
 48
2.0
  5
26D
 10
3.105328
 20
0.501235
 30
0.0
 40
0.0
 41
0.0
  0
VERTEX
  8
SCREEN
  6
DCAD_SOLID
 62
    16
 48
2.0
  5
26E
 10
3.104418
 20
0.504939
 30
0.0
 40
0.0
 41
0.0
  0
VERTEX
  8
SCREEN
  6
DCAD_SOLID
 62
    16
 48
2.0
  5
26F
 10
3.108781
 20
0.504618
 30
0.0
 40
0.0
 41
0.0
  0
VERTEX
  8
SCREEN
  6
DCAD_SOLID
 62
    16
 48
2.0
  5
270
 10
3.113143
 20
0.504778
 30
0.0
 40
0.0
 41
0.0
  0
VERTEX
  8
SCREEN
  6
DCAD_SOLID
 62
    16
 48
2.0
  5
271
 10
3.117507
 20
0.506229
 30
0.0
 40
0.0
 41
0.0
  0
VERTEX
  8
SCREEN
  6
DCAD_SOLID
 62
    16
 48
2.0
  5
272
 10
3.120779
 20
0.508967
 30
0.0
 40
0.0
 41
0.0
  0
VERTEX
  8
SCREEN
  6
DCAD_SOLID
 62
    16
 48
2.0
  5
273
 10
3.12496
 20
0.507839
 30
0.0
 40
0.0
 41
0.0
  0
VERTEX
  8
SCREEN
  6
DCAD_SOLID
 62
    16
 48
2.0
  5
274
 10
3.129323
 20
0.507518
 30
0.0
 40
0.0
 41
0.0
  0
VERTEX
  8
SCREEN
  6
DCAD_SOLID
 62
    16
 48
2.0
  5
275
 10
3.133686
 20
0.507675
 30
0.0
 40
0.0
 41
0.0
  0
VERTEX
  8
SCREEN
  6
DCAD_SOLID
 62
    16
 48
2.0
  5
276
 10
3.138048
 20
0.507354
 30
0.0
 40
0.0
 41
0.0
  0
VERTEX
  8
SCREEN
  6
DCAD_SOLID
 62
    16
 48
2.0
  5
277
 10
3.142411
 20
0.507193
 30
0.0
 40
0.0
 41
0.0
  0
VERTEX
  8
SCREEN
  6
DCAD_SOLID
 62
    16
 48
2.0
  5
278
 10
3.146771
 20
0.50655
 30
0.0
 40
0.0
 41
0.0
  0
VERTEX
  8
SCREEN
  6
DCAD_SOLID
 62
    16
 48
2.0
  5
279
 10
3.150953
 20
0.504618
 30
0.0
 40
0.0
 41
0.0
  0
VERTEX
  8
SCREEN
  6
DCAD_SOLID
 62
    16
 48
2.0
  5
27A
 10
3.155316
 20
0.503489
 30
0.0
 40
0.0
 41
0.0
  0
VERTEX
  8
SCREEN
  6
DCAD_SOLID
 62
    16
 48
2.0
  5
27B
 10
3.159678
 20
0.502042
 30
0.0
 40
0.0
 41
0.0
  0
VERTEX
  8
SCREEN
  6
DCAD_SOLID
 62
    16
 48
2.0
  5
27C
 10
3.164041
 20
0.501074
 30
0.0
 40
0.0
 41
0.0
  0
VERTEX
  8
SCREEN
  6
DCAD_SOLID
 62
    16
 48
2.0
  5
27D
 10
3.168221
 20
0.498981
 30
0.0
 40
0.0
 41
0.0
  0
VERTEX
  8
SCREEN
  6
DCAD_SOLID
 62
    16
 48
2.0
  5
27E
 10
3.171675
 20
0.496563
 30
0.0
 40
0.0
 41
0.0
  0
VERTEX
  8
SCREEN
  6
DCAD_SOLID
 62
    16
 48
2.0
  5
27F
 10
3.173312
 20
0.496887
 30
0.0
 40
0.0
 41
0.0
  0
SEQEND
  8
0
  5
280
  0
POLYLINE
  8
SCREEN
  6
DCAD_SOLID
 62
    16
 48
2.0
  5
281
 66
     1
 10
0.0
 20
0.0
 30
0.0
 70
   128
  0
VERTEX
  8
SCREEN
  6
DCAD_SOLID
 62
    16
 48
2.0
  5
282
 10
3.133502
 20
0.523945
 30
0.0
 40
0.0
 41
0.0
  0
VERTEX
  8
SCREEN
  6
DCAD_SOLID
 62
    16
 48
2.0
  5
283
 10
3.136592
 20
0.527006
 30
0.0
 40
0.0
 41
0.0
  0
VERTEX
  8
SCREEN
  6
DCAD_SOLID
 62
    16
 48
2.0
  5
284
 10
3.140954
 20
0.528132
 30
0.0
 40
0.0
 41
0.0
  0
VERTEX
  8
SCREEN
  6
DCAD_SOLID
 62
    16
 48
2.0
  5
285
 10
3.145502
 20
0.527649
 30
0.0
 40
0.0
 41
0.0
  0
VERTEX
  8
SCREEN
  6
DCAD_SOLID
 62
    16
 48
2.0
  5
286
 10
3.149864
 20
0.527166
 30
0.0
 40
0.0
 41
0.0
  0
VERTEX
  8
SCREEN
  6
DCAD_SOLID
 62
    16
 48
2.0
  5
287
 10
3.153678
 20
0.525553
 30
0.0
 40
0.0
 41
0.0
  0
VERTEX
  8
SCREEN
  6
DCAD_SOLID
 62
    16
 48
2.0
  5
288
 10
3.156589
 20
0.522498
 30
0.0
 40
0.0
 41
0.0
  0
VERTEX
  8
SCREEN
  6
DCAD_SOLID
 62
    16
 48
2.0
  5
289
 10
3.160223
 20
0.520402
 30
0.0
 40
0.0
 41
0.0
  0
VERTEX
  8
SCREEN
  6
DCAD_SOLID
 62
    16
 48
2.0
  5
28A
 10
3.164041
 20
0.518469
 30
0.0
 40
0.0
 41
0.0
  0
VERTEX
  8
SCREEN
  6
DCAD_SOLID
 62
    16
 48
2.0
  5
28B
 10
3.167858
 20
0.516537
 30
0.0
 40
0.0
 41
0.0
  0
VERTEX
  8
SCREEN
  6
DCAD_SOLID
 62
    16
 48
2.0
  5
28C
 10
3.172039
 20
0.514441
 30
0.0
 40
0.0
 41
0.0
  0
VERTEX
  8
SCREEN
  6
DCAD_SOLID
 62
    16
 48
2.0
  5
28D
 10
3.176219
 20
0.51235
 30
0.0
 40
0.0
 41
0.0
  0
VERTEX
  8
SCREEN
  6
DCAD_SOLID
 62
    16
 48
2.0
  5
28E
 10
3.17313
 20
0.515409
 30
0.0
 40
0.0
 41
0.0
  0
VERTEX
  8
SCREEN
  6
DCAD_SOLID
 62
    16
 48
2.0
  5
28F
 10
3.170765
 20
0.51863
 30
0.0
 40
0.0
 41
0.0
  0
VERTEX
  8
SCREEN
  6
DCAD_SOLID
 62
    16
 48
2.0
  5
290
 10
3.16804
 20
0.521688
 30
0.0
 40
0.0
 41
0.0
  0
VERTEX
  8
SCREEN
  6
DCAD_SOLID
 62
    16
 48
2.0
  5
291
 10
3.164951
 20
0.52491
 30
0.0
 40
0.0
 41
0.0
  0
VERTEX
  8
SCREEN
  6
DCAD_SOLID
 62
    16
 48
2.0
  5
292
 10
3.169131
 20
0.523462
 30
0.0
 40
0.0
 41
0.0
  0
VERTEX
  8
SCREEN
  6
DCAD_SOLID
 62
    16
 48
2.0
  5
293
 10
3.172402
 20
0.521045
 30
0.0
 40
0.0
 41
0.0
  0
VERTEX
  8
SCREEN
  6
DCAD_SOLID
 62
    16
 48
2.0
  5
294
 10
3.176219
 20
0.519273
 30
0.0
 40
0.0
 41
0.0
  0
VERTEX
  8
SCREEN
  6
DCAD_SOLID
 62
    16
 48
2.0
  5
295
 10
3.180582
 20
0.517662
 30
0.0
 40
0.0
 41
0.0
  0
VERTEX
  8
SCREEN
  6
DCAD_SOLID
 62
    16
 48
2.0
  5
296
 10
3.182946
 20
0.514282
 30
0.0
 40
0.0
 41
0.0
  0
VERTEX
  8
SCREEN
  6
DCAD_SOLID
 62
    16
 48
2.0
  5
297
 10
3.182218
 20
0.510415
 30
0.0
 40
0.0
 41
0.0
  0
VERTEX
  8
SCREEN
  6
DCAD_SOLID
 62
    16
 48
2.0
  5
298
 10
3.18458
 20
0.506871
 30
0.0
 40
0.0
 41
0.0
  0
VERTEX
  8
SCREEN
  6
DCAD_SOLID
 62
    16
 48
2.0
  5
299
 10
3.187126
 20
0.503489
 30
0.0
 40
0.0
 41
0.0
  0
VERTEX
  8
SCREEN
  6
DCAD_SOLID
 62
    16
 48
2.0
  5
29A
 10
3.189307
 20
0.500106
 30
0.0
 40
0.0
 41
0.0
  0
VERTEX
  8
SCREEN
  6
DCAD_SOLID
 62
    16
 48
2.0
  5
29B
 10
3.18549
 20
0.50172
 30
0.0
 40
0.0
 41
0.0
  0
VERTEX
  8
SCREEN
  6
DCAD_SOLID
 62
    16
 48
2.0
  5
29C
 10
3.181128
 20
0.503167
 30
0.0
 40
0.0
 41
0.0
  0
VERTEX
  8
SCREEN
  6
DCAD_SOLID
 62
    16
 48
2.0
  5
29D
 10
3.1804
 20
0.499305
 30
0.0
 40
0.0
 41
0.0
  0
VERTEX
  8
SCREEN
  6
DCAD_SOLID
 62
    16
 48
2.0
  5
29E
 10
3.176219
 20
0.500913
 30
0.0
 40
0.0
 41
0.0
  0
VERTEX
  8
SCREEN
  6
DCAD_SOLID
 62
    16
 48
2.0
  5
29F
 10
3.17222
 20
0.499305
 30
0.0
 40
0.0
 41
0.0
  0
VERTEX
  8
SCREEN
  6
DCAD_SOLID
 62
    16
 48
2.0
  5
2A0
 10
3.168221
 20
0.500913
 30
0.0
 40
0.0
 41
0.0
  0
VERTEX
  8
SCREEN
  6
DCAD_SOLID
 62
    16
 48
2.0
  5
2A1
 10
3.164221
 20
0.502524
 30
0.0
 40
0.0
 41
0.0
  0
VERTEX
  8
SCREEN
  6
DCAD_SOLID
 62
    16
 48
2.0
  5
2A2
 10
3.159859
 20
0.504135
 30
0.0
 40
0.0
 41
0.0
  0
VERTEX
  8
SCREEN
  6
DCAD_SOLID
 62
    16
 48
2.0
  5
2A3
 10
3.164221
 20
0.503167
 30
0.0
 40
0.0
 41
0.0
  0
VERTEX
  8
SCREEN
  6
DCAD_SOLID
 62
    16
 48
2.0
  5
2A4
 10
3.168584
 20
0.503489
 30
0.0
 40
0.0
 41
0.0
  0
VERTEX
  8
SCREEN
  6
DCAD_SOLID
 62
    16
 48
2.0
  5
2A5
 10
3.171131
 20
0.50655
 30
0.0
 40
0.0
 41
0.0
  0
VERTEX
  8
SCREEN
  6
DCAD_SOLID
 62
    16
 48
2.0
  5
2A6
 10
3.167313
 20
0.508643
 30
0.0
 40
0.0
 41
0.0
  0
VERTEX
  8
SCREEN
  6
DCAD_SOLID
 62
    16
 48
2.0
  5
2A7
 10
3.163496
 20
0.510254
 30
0.0
 40
0.0
 41
0.0
  0
VERTEX
  8
SCREEN
  6
DCAD_SOLID
 62
    16
 48
2.0
  5
2A8
 10
3.159133
 20
0.511058
 30
0.0
 40
0.0
 41
0.0
  0
VERTEX
  8
SCREEN
  6
DCAD_SOLID
 62
    16
 48
2.0
  5
2A9
 10
3.163133
 20
0.512672
 30
0.0
 40
0.0
 41
0.0
  0
VERTEX
  8
SCREEN
  6
DCAD_SOLID
 62
    16
 48
2.0
  5
2AA
 10
3.167495
 20
0.512672
 30
0.0
 40
0.0
 41
0.0
  0
VERTEX
  8
SCREEN
  6
DCAD_SOLID
 62
    16
 48
2.0
  5
2AB
 10
3.163496
 20
0.514604
 30
0.0
 40
0.0
 41
0.0
  0
VERTEX
  8
SCREEN
  6
DCAD_SOLID
 62
    16
 48
2.0
  5
2AC
 10
3.158951
 20
0.515247
 30
0.0
 40
0.0
 41
0.0
  0
VERTEX
  8
SCREEN
  6
DCAD_SOLID
 62
    16
 48
2.0
  5
2AD
 10
3.154588
 20
0.515569
 30
0.0
 40
0.0
 41
0.0
  0
VERTEX
  8
SCREEN
  6
DCAD_SOLID
 62
    16
 48
2.0
  5
2AE
 10
3.150226
 20
0.515409
 30
0.0
 40
0.0
 41
0.0
  0
VERTEX
  8
SCREEN
  6
DCAD_SOLID
 62
    16
 48
2.0
  5
2AF
 10
3.150533
 20
0.519336
 30
0.0
 40
0.0
 41
0.0
  0
VERTEX
  8
SCREEN
  6
DCAD_SOLID
 62
    16
 48
2.0
  5
2B0
 10
3.146334
 20
0.51841
 30
0.0
 40
0.0
 41
0.0
  0
VERTEX
  8
SCREEN
  6
DCAD_SOLID
 62
    16
 48
2.0
  5
2B1
 10
3.148227
 20
0.518457
 30
0.0
 40
0.0
 41
0.0
  0
VERTEX
  8
SCREEN
  6
DCAD_SOLID
 62
    16
 48
2.0
  5
2B2
 10
3.147499
 20
0.520884
 30
0.0
 40
0.0
 41
0.0
  0
VERTEX
  8
SCREEN
  6
DCAD_SOLID
 62
    16
 48
2.0
  5
2B3
 10
3.143136
 20
0.521688
 30
0.0
 40
0.0
 41
0.0
  0
VERTEX
  8
SCREEN
  6
DCAD_SOLID
 62
    16
 48
2.0
  5
2B4
 10
3.138773
 20
0.521852
 30
0.0
 40
0.0
 41
0.0
  0
VERTEX
  8
SCREEN
  6
DCAD_SOLID
 62
    16
 48
2.0
  5
2B5
 10
3.13441
 20
0.52153
 30
0.0
 40
0.0
 41
0.0
  0
VERTEX
  8
SCREEN
  6
DCAD_SOLID
 62
    16
 48
2.0
  5
2B6
 10
3.130777
 20
0.522498
 30
0.0
 40
0.0
 41
0.0
  0
SEQEND
  8
0
  5
2B7
  0
POLYLINE
  8
SCREEN
  6
DCAD_SOLID
 62
    16
 48
2.0
  5
2B8
 66
     1
 10
0.0
 20
0.0
 30
0.0
 70
   128
  0
VERTEX
  8
SCREEN
  6
DCAD_SOLID
 62
    16
 48
2.0
  5
2B9
 10
3.054615
 20
0.425213
 30
0.0
 40
0.0
 41
0.0
  0
VERTEX
  8
SCREEN
  6
DCAD_SOLID
 62
    16
 48
2.0
  5
2BA
 10
3.053705
 20
0.429081
 30
0.0
 40
0.0
 41
0.0
  0
VERTEX
  8
SCREEN
  6
DCAD_SOLID
 62
    16
 48
2.0
  5
2BB
 10
3.05334
 20
0.432946
 30
0.0
 40
0.0
 41
0.0
  0
VERTEX
  8
SCREEN
  6
DCAD_SOLID
 62
    16
 48
2.0
  5
2BC
 10
3.052977
 20
0.436811
 30
0.0
 40
0.0
 41
0.0
  0
VERTEX
  8
SCREEN
  6
DCAD_SOLID
 62
    16
 48
2.0
  5
2BD
 10
3.05316
 20
0.440679
 30
0.0
 40
0.0
 41
0.0
  0
VERTEX
  8
SCREEN
  6
DCAD_SOLID
 62
    16
 48
2.0
  5
2BE
 10
3.05316
 20
0.444541
 30
0.0
 40
0.0
 41
0.0
  0
VERTEX
  8
SCREEN
  6
DCAD_SOLID
 62
    16
 48
2.0
  5
2BF
 10
3.05316
 20
0.448405
 30
0.0
 40
0.0
 41
0.0
  0
VERTEX
  8
SCREEN
  6
DCAD_SOLID
 62
    16
 48
2.0
  5
2C0
 10
3.052797
 20
0.452271
 30
0.0
 40
0.0
 41
0.0
  0
VERTEX
  8
SCREEN
  6
DCAD_SOLID
 62
    16
 48
2.0
  5
2C1
 10
3.050251
 20
0.449049
 30
0.0
 40
0.0
 41
0.0
  0
VERTEX
  8
SCREEN
  6
DCAD_SOLID
 62
    16
 48
2.0
  5
2C2
 10
3.049525
 20
0.445184
 30
0.0
 40
0.0
 41
0.0
  0
VERTEX
  8
SCREEN
  6
DCAD_SOLID
 62
    16
 48
2.0
  5
2C3
 10
3.046797
 20
0.441962
 30
0.0
 40
0.0
 41
0.0
  0
VERTEX
  8
SCREEN
  6
DCAD_SOLID
 62
    16
 48
2.0
  5
2C4
 10
3.04516
 20
0.44583
 30
0.0
 40
0.0
 41
0.0
  0
VERTEX
  8
SCREEN
  6
DCAD_SOLID
 62
    16
 48
2.0
  5
2C5
 10
3.04516
 20
0.449695
 30
0.0
 40
0.0
 41
0.0
  0
VERTEX
  8
SCREEN
  6
DCAD_SOLID
 62
    16
 48
2.0
  5
2C6
 10
3.042434
 20
0.453239
 30
0.0
 40
0.0
 41
0.0
  0
VERTEX
  8
SCREEN
  6
DCAD_SOLID
 62
    16
 48
2.0
  5
2C7
 10
3.038435
 20
0.451306
 30
0.0
 40
0.0
 41
0.0
  0
VERTEX
  8
SCREEN
  6
DCAD_SOLID
 62
    16
 48
2.0
  5
2C8
 10
3.037346
 20
0.455171
 30
0.0
 40
0.0
 41
0.0
  0
VERTEX
  8
SCREEN
  6
DCAD_SOLID
 62
    16
 48
2.0
  5
2C9
 10
3.036983
 20
0.459036
 30
0.0
 40
0.0
 41
0.0
  0
VERTEX
  8
SCREEN
  6
DCAD_SOLID
 62
    16
 48
2.0
  5
2CA
 10
3.037346
 20
0.462904
 30
0.0
 40
0.0
 41
0.0
  0
VERTEX
  8
SCREEN
  6
DCAD_SOLID
 62
    16
 48
2.0
  5
2CB
 10
3.034437
 20
0.459679
 30
0.0
 40
0.0
 41
0.0
  0
VERTEX
  8
SCREEN
  6
DCAD_SOLID
 62
    16
 48
2.0
  5
2CC
 10
3.03262
 20
0.463223
 30
0.0
 40
0.0
 41
0.0
  0
VERTEX
  8
SCREEN
  6
DCAD_SOLID
 62
    16
 48
2.0
  5
2CD
 10
3.033348
 20
0.467091
 30
0.0
 40
0.0
 41
0.0
  0
VERTEX
  8
SCREEN
  6
DCAD_SOLID
 62
    16
 48
2.0
  5
2CE
 10
3.034072
 20
0.470955
 30
0.0
 40
0.0
 41
0.0
  0
VERTEX
  8
SCREEN
  6
DCAD_SOLID
 62
    16
 48
2.0
  5
2CF
 10
3.034982
 20
0.47482
 30
0.0
 40
0.0
 41
0.0
  0
VERTEX
  8
SCREEN
  6
DCAD_SOLID
 62
    16
 48
2.0
  5
2D0
 10
3.036983
 20
0.478688
 30
0.0
 40
0.0
 41
0.0
  0
VERTEX
  8
SCREEN
  6
DCAD_SOLID
 62
    16
 48
2.0
  5
2D1
 10
3.0408
 20
0.481103
 30
0.0
 40
0.0
 41
0.0
  0
VERTEX
  8
SCREEN
  6
DCAD_SOLID
 62
    16
 48
2.0
  5
2D2
 10
3.042253
 20
0.484968
 30
0.0
 40
0.0
 41
0.0
  0
VERTEX
  8
SCREEN
  6
DCAD_SOLID
 62
    16
 48
2.0
  5
2D3
 10
3.042979
 20
0.488833
 30
0.0
 40
0.0
 41
0.0
  0
VERTEX
  8
SCREEN
  6
DCAD_SOLID
 62
    16
 48
2.0
  5
2D4
 10
3.044072
 20
0.492698
 30
0.0
 40
0.0
 41
0.0
  0
VERTEX
  8
SCREEN
  6
DCAD_SOLID
 62
    16
 48
2.0
  5
2D5
 10
3.040617
 20
0.489798
 30
0.0
 40
0.0
 41
0.0
  0
VERTEX
  8
SCREEN
  6
DCAD_SOLID
 62
    16
 48
2.0
  5
2D6
 10
3.037891
 20
0.486579
 30
0.0
 40
0.0
 41
0.0
  0
VERTEX
  8
SCREEN
  6
DCAD_SOLID
 62
    16
 48
2.0
  5
2D7
 10
3.03589
 20
0.482711
 30
0.0
 40
0.0
 41
0.0
  0
VERTEX
  8
SCREEN
  6
DCAD_SOLID
 62
    16
 48
2.0
  5
2D8
 10
3.034256
 20
0.478849
 30
0.0
 40
0.0
 41
0.0
  0
VERTEX
  8
SCREEN
  6
DCAD_SOLID
 62
    16
 48
2.0
  5
2D9
 10
3.032438
 20
0.474984
 30
0.0
 40
0.0
 41
0.0
  0
VERTEX
  8
SCREEN
  6
DCAD_SOLID
 62
    16
 48
2.0
  5
2DA
 10
3.030983
 20
0.471119
 30
0.0
 40
0.0
 41
0.0
  0
VERTEX
  8
SCREEN
  6
DCAD_SOLID
 62
    16
 48
2.0
  5
2DB
 10
3.031166
 20
0.467251
 30
0.0
 40
0.0
 41
0.0
  0
VERTEX
  8
SCREEN
  6
DCAD_SOLID
 62
    16
 48
2.0
  5
2DC
 10
3.030983
 20
0.463386
 30
0.0
 40
0.0
 41
0.0
  0
VERTEX
  8
SCREEN
  6
DCAD_SOLID
 62
    16
 48
2.0
  5
2DD
 10
3.030802
 20
0.459521
 30
0.0
 40
0.0
 41
0.0
  0
VERTEX
  8
SCREEN
  6
DCAD_SOLID
 62
    16
 48
2.0
  5
2DE
 10
3.030802
 20
0.455653
 30
0.0
 40
0.0
 41
0.0
  0
VERTEX
  8
SCREEN
  6
DCAD_SOLID
 62
    16
 48
2.0
  5
2DF
 10
3.030802
 20
0.451788
 30
0.0
 40
0.0
 41
0.0
  0
VERTEX
  8
SCREEN
  6
DCAD_SOLID
 62
    16
 48
2.0
  5
2E0
 10
3.029166
 20
0.448081
 30
0.0
 40
0.0
 41
0.0
  0
VERTEX
  8
SCREEN
  6
DCAD_SOLID
 62
    16
 48
2.0
  5
2E1
 10
3.029347
 20
0.444061
 30
0.0
 40
0.0
 41
0.0
  0
VERTEX
  8
SCREEN
  6
DCAD_SOLID
 62
    16
 48
2.0
  5
2E2
 10
3.030258
 20
0.440193
 30
0.0
 40
0.0
 41
0.0
  0
VERTEX
  8
SCREEN
  6
DCAD_SOLID
 62
    16
 48
2.0
  5
2E3
 10
3.032074
 20
0.436329
 30
0.0
 40
0.0
 41
0.0
  0
VERTEX
  8
SCREEN
  6
DCAD_SOLID
 62
    16
 48
2.0
  5
2E4
 10
3.034256
 20
0.432946
 30
0.0
 40
0.0
 41
0.0
  0
VERTEX
  8
SCREEN
  6
DCAD_SOLID
 62
    16
 48
2.0
  5
2E5
 10
3.036254
 20
0.429081
 30
0.0
 40
0.0
 41
0.0
  0
VERTEX
  8
SCREEN
  6
DCAD_SOLID
 62
    16
 48
2.0
  5
2E6
 10
3.040435
 20
0.429725
 30
0.0
 40
0.0
 41
0.0
  0
VERTEX
  8
SCREEN
  6
DCAD_SOLID
 62
    16
 48
2.0
  5
2E7
 10
3.043707
 20
0.426988
 30
0.0
 40
0.0
 41
0.0
  0
VERTEX
  8
SCREEN
  6
DCAD_SOLID
 62
    16
 48
2.0
  5
2E8
 10
3.047889
 20
0.425053
 30
0.0
 40
0.0
 41
0.0
  0
VERTEX
  8
SCREEN
  6
DCAD_SOLID
 62
    16
 48
2.0
  5
2E9
 10
3.051523
 20
0.422959
 30
0.0
 40
0.0
 41
0.0
  0
VERTEX
  8
SCREEN
  6
DCAD_SOLID
 62
    16
 48
2.0
  5
2EA
 10
3.054795
 20
0.420381
 30
0.0
 40
0.0
 41
0.0
  0
VERTEX
  8
SCREEN
  6
DCAD_SOLID
 62
    16
 48
2.0
  5
2EB
 10
3.055341
 20
0.416518
 30
0.0
 40
0.0
 41
0.0
  0
VERTEX
  8
SCREEN
  6
DCAD_SOLID
 62
    16
 48
2.0
  5
2EC
 10
3.057159
 20
0.412811
 30
0.0
 40
0.0
 41
0.0
  0
VERTEX
  8
SCREEN
  6
DCAD_SOLID
 62
    16
 48
2.0
  5
2ED
 10
3.058432
 20
0.410879
 30
0.0
 40
0.0
 41
0.0
  0
SEQEND
  8
0
  5
2EE
  0
POLYLINE
  8
SCREEN
  6
DCAD_SOLID
 62
    16
 48
2.0
  5
2EF
 66
     1
 10
0.0
 20
0.0
 30
0.0
 70
   128
  0
VERTEX
  8
SCREEN
  6
DCAD_SOLID
 62
    16
 48
2.0
  5
2F0
 10
3.062795
 20
0.370131
 30
0.0
 40
0.0
 41
0.0
  0
VERTEX
  8
SCREEN
  6
DCAD_SOLID
 62
    16
 48
2.0
  5
2F1
 10
3.058794
 20
0.371902
 30
0.0
 40
0.0
 41
0.0
  0
VERTEX
  8
SCREEN
  6
DCAD_SOLID
 62
    16
 48
2.0
  5
2F2
 10
3.054431
 20
0.373028
 30
0.0
 40
0.0
 41
0.0
  0
VERTEX
  8
SCREEN
  6
DCAD_SOLID
 62
    16
 48
2.0
  5
2F3
 10
3.05007
 20
0.373674
 30
0.0
 40
0.0
 41
0.0
  0
VERTEX
  8
SCREEN
  6
DCAD_SOLID
 62
    16
 48
2.0
  5
2F4
 10
3.045708
 20
0.373835
 30
0.0
 40
0.0
 41
0.0
  0
VERTEX
  8
SCREEN
  6
DCAD_SOLID
 62
    16
 48
2.0
  5
2F5
 10
3.044072
 20
0.377703
 30
0.0
 40
0.0
 41
0.0
  0
VERTEX
  8
SCREEN
  6
DCAD_SOLID
 62
    16
 48
2.0
  5
2F6
 10
3.047889
 20
0.379471
 30
0.0
 40
0.0
 41
0.0
  0
VERTEX
  8
SCREEN
  6
DCAD_SOLID
 62
    16
 48
2.0
  5
2F7
 10
3.04516
 20
0.382692
 30
0.0
 40
0.0
 41
0.0
  0
VERTEX
  8
SCREEN
  6
DCAD_SOLID
 62
    16
 48
2.0
  5
2F8
 10
3.042253
 20
0.385593
 30
0.0
 40
0.0
 41
0.0
  0
VERTEX
  8
SCREEN
  6
DCAD_SOLID
 62
    16
 48
2.0
  5
2F9
 10
3.043163
 20
0.389458
 30
0.0
 40
0.0
 41
0.0
  0
VERTEX
  8
SCREEN
  6
DCAD_SOLID
 62
    16
 48
2.0
  5
2FA
 10
3.047343
 20
0.39123
 30
0.0
 40
0.0
 41
0.0
  0
VERTEX
  8
SCREEN
  6
DCAD_SOLID
 62
    16
 48
2.0
  5
2FB
 10
3.044252
 20
0.393808
 30
0.0
 40
0.0
 41
0.0
  0
VERTEX
  8
SCREEN
  6
DCAD_SOLID
 62
    16
 48
2.0
  5
2FC
 10
3.040435
 20
0.391715
 30
0.0
 40
0.0
 41
0.0
  0
VERTEX
  8
SCREEN
  6
DCAD_SOLID
 62
    16
 48
2.0
  5
2FD
 10
3.038435
 20
0.387847
 30
0.0
 40
0.0
 41
0.0
  0
VERTEX
  8
SCREEN
  6
DCAD_SOLID
 62
    16
 48
2.0
  5
2FE
 10
3.039709
 20
0.383982
 30
0.0
 40
0.0
 41
0.0
  0
VERTEX
  8
SCREEN
  6
DCAD_SOLID
 62
    16
 48
2.0
  5
2FF
 10
3.038982
 20
0.380118
 30
0.0
 40
0.0
 41
0.0
  0
VERTEX
  8
SCREEN
  6
DCAD_SOLID
 62
    16
 48
2.0
  5
300
 10
3.038072
 20
0.376249
 30
0.0
 40
0.0
 41
0.0
  0
VERTEX
  8
SCREEN
  6
DCAD_SOLID
 62
    16
 48
2.0
  5
301
 10
3.040435
 20
0.373028
 30
0.0
 40
0.0
 41
0.0
  0
VERTEX
  8
SCREEN
  6
DCAD_SOLID
 62
    16
 48
2.0
  5
302
 10
3.043527
 20
0.369969
 30
0.0
 40
0.0
 41
0.0
  0
VERTEX
  8
SCREEN
  6
DCAD_SOLID
 62
    16
 48
2.0
  5
303
 10
3.047707
 20
0.36868
 30
0.0
 40
0.0
 41
0.0
  0
VERTEX
  8
SCREEN
  6
DCAD_SOLID
 62
    16
 48
2.0
  5
304
 10
3.051888
 20
0.370455
 30
0.0
 40
0.0
 41
0.0
  0
VERTEX
  8
SCREEN
  6
DCAD_SOLID
 62
    16
 48
2.0
  5
305
 10
3.056251
 20
0.370455
 30
0.0
 40
0.0
 41
0.0
  0
VERTEX
  8
SCREEN
  6
DCAD_SOLID
 62
    16
 48
2.0
  5
306
 10
3.060613
 20
0.368841
 30
0.0
 40
0.0
 41
0.0
  0
VERTEX
  8
SCREEN
  6
DCAD_SOLID
 62
    16
 48
2.0
  5
307
 10
3.061158
 20
0.368841
 30
0.0
 40
0.0
 41
0.0
  0
SEQEND
  8
0
  5
308
  0
POLYLINE
  8
SCREEN
  6
DCAD_SOLID
 62
    16
 48
2.0
  5
309
 66
     1
 10
0.0
 20
0.0
 30
0.0
 70
   128
  0
VERTEX
  8
SCREEN
  6
DCAD_SOLID
 62
    16
 48
2.0
  5
30A
 10
3.059521
 20
0.460971
 30
0.0
 40
0.0
 41
0.0
  0
VERTEX
  8
SCREEN
  6
DCAD_SOLID
 62
    16
 48
2.0
  5
30B
 10
3.05734
 20
0.457749
 30
0.0
 40
0.0
 41
0.0
  0
VERTEX
  8
SCREEN
  6
DCAD_SOLID
 62
    16
 48
2.0
  5
30C
 10
3.056068
 20
0.453881
 30
0.0
 40
0.0
 41
0.0
  0
VERTEX
  8
SCREEN
  6
DCAD_SOLID
 62
    16
 48
2.0
  5
30D
 10
3.054978
 20
0.450017
 30
0.0
 40
0.0
 41
0.0
  0
VERTEX
  8
SCREEN
  6
DCAD_SOLID
 62
    16
 48
2.0
  5
30E
 10
3.056068
 20
0.446313
 30
0.0
 40
0.0
 41
0.0
  0
VERTEX
  8
SCREEN
  6
DCAD_SOLID
 62
    16
 48
2.0
  5
30F
 10
3.05934
 20
0.446152
 30
0.0
 40
0.0
 41
0.0
  0
SEQEND
  8
0
  5
310
  0
POLYLINE
  8
SCREEN
  6
DCAD_SOLID
 62
    16
 48
2.0
  5
311
 66
     1
 10
0.0
 20
0.0
 30
0.0
 70
   128
  0
VERTEX
  8
SCREEN
  6
DCAD_SOLID
 62
    16
 48
2.0
  5
312
 10
3.207486
 20
0.409593
 30
0.0
 40
0.0
 41
0.0
  0
VERTEX
  8
SCREEN
  6
DCAD_SOLID
 62
    16
 48
2.0
  5
313
 10
3.210392
 20
0.412654
 30
0.0
 40
0.0
 41
0.0
  0
SEQEND
  8
0
  5
314
  0
POLYLINE
  8
SCREEN
  6
DCAD_SOLID
 62
    16
 48
2.0
  5
315
 66
     1
 10
0.0
 20
0.0
 30
0.0
 70
   128
  0
VERTEX
  8
SCREEN
  6
DCAD_SOLID
 62
    16
 48
2.0
  5
316
 10
3.210392
 20
0.412654
 30
0.0
 40
0.0
 41
0.0
  0
VERTEX
  8
SCREEN
  6
DCAD_SOLID
 62
    16
 48
2.0
  5
317
 10
3.2113
 20
0.416518
 30
0.0
 40
0.0
 41
0.0
  0
SEQEND
  8
0
  5
318
  0
POLYLINE
  8
SCREEN
  6
DCAD_SOLID
 62
    16
 48
2.0
  5
319
 66
     1
 10
0.0
 20
0.0
 30
0.0
 70
   128
  0
VERTEX
  8
SCREEN
  6
DCAD_SOLID
 62
    16
 48
2.0
  5
31A
 10
3.2113
 20
0.416518
 30
0.0
 40
0.0
 41
0.0
  0
VERTEX
  8
SCREEN
  6
DCAD_SOLID
 62
    16
 48
2.0
  5
31B
 10
3.213665
 20
0.419901
 30
0.0
 40
0.0
 41
0.0
  0
SEQEND
  8
0
  5
31C
  0
POLYLINE
  8
SCREEN
  6
DCAD_SOLID
 62
    16
 48
2.0
  5
31D
 66
     1
 10
0.0
 20
0.0
 30
0.0
 70
   128
  0
VERTEX
  8
SCREEN
  6
DCAD_SOLID
 62
    16
 48
2.0
  5
31E
 10
3.213665
 20
0.419901
 30
0.0
 40
0.0
 41
0.0
  0
VERTEX
  8
SCREEN
  6
DCAD_SOLID
 62
    16
 48
2.0
  5
31F
 10
3.214211
 20
0.423762
 30
0.0
 40
0.0
 41
0.0
  0
SEQEND
  8
0
  5
320
  0
POLYLINE
  8
SCREEN
  6
DCAD_SOLID
 62
    16
 48
2.0
  5
321
 66
     1
 10
0.0
 20
0.0
 30
0.0
 70
   128
  0
VERTEX
  8
SCREEN
  6
DCAD_SOLID
 62
    16
 48
2.0
  5
322
 10
3.214211
 20
0.423762
 30
0.0
 40
0.0
 41
0.0
  0
VERTEX
  8
SCREEN
  6
DCAD_SOLID
 62
    16
 48
2.0
  5
323
 10
3.212938
 20
0.427629
 30
0.0
 40
0.0
 41
0.0
  0
SEQEND
  8
0
  5
324
  0
POLYLINE
  8
SCREEN
  6
DCAD_SOLID
 62
    16
 48
2.0
  5
325
 66
     1
 10
0.0
 20
0.0
 30
0.0
 70
   128
  0
VERTEX
  8
SCREEN
  6
DCAD_SOLID
 62
    16
 48
2.0
  5
326
 10
3.212938
 20
0.427629
 30
0.0
 40
0.0
 41
0.0
  0
VERTEX
  8
SCREEN
  6
DCAD_SOLID
 62
    16
 48
2.0
  5
327
 10
3.212574
 20
0.431496
 30
0.0
 40
0.0
 41
0.0
  0
SEQEND
  8
0
  5
328
  0
POLYLINE
  8
SCREEN
  6
DCAD_SOLID
 62
    16
 48
2.0
  5
329
 66
     1
 10
0.0
 20
0.0
 30
0.0
 70
   128
  0
VERTEX
  8
SCREEN
  6
DCAD_SOLID
 62
    16
 48
2.0
  5
32A
 10
3.212574
 20
0.431496
 30
0.0
 40
0.0
 41
0.0
  0
VERTEX
  8
SCREEN
  6
DCAD_SOLID
 62
    16
 48
2.0
  5
32B
 10
3.212574
 20
0.435361
 30
0.0
 40
0.0
 41
0.0
  0
SEQEND
  8
0
  5
32C
  0
POLYLINE
  8
SCREEN
  6
DCAD_SOLID
 62
    16
 48
2.0
  5
32D
 66
     1
 10
0.0
 20
0.0
 30
0.0
 70
   128
  0
VERTEX
  8
SCREEN
  6
DCAD_SOLID
 62
    16
 48
2.0
  5
32E
 10
3.212574
 20
0.435361
 30
0.0
 40
0.0
 41
0.0
  0
VERTEX
  8
SCREEN
  6
DCAD_SOLID
 62
    16
 48
2.0
  5
32F
 10
3.212938
 20
0.439226
 30
0.0
 40
0.0
 41
0.0
  0
SEQEND
  8
0
  5
330
  0
POLYLINE
  8
SCREEN
  6
DCAD_SOLID
 62
    16
 48
2.0
  5
331
 66
     1
 10
0.0
 20
0.0
 30
0.0
 70
   128
  0
VERTEX
  8
SCREEN
  6
DCAD_SOLID
 62
    16
 48
2.0
  5
332
 10
3.212938
 20
0.439226
 30
0.0
 40
0.0
 41
0.0
  0
VERTEX
  8
SCREEN
  6
DCAD_SOLID
 62
    16
 48
2.0
  5
333
 10
3.213848
 20
0.443093
 30
0.0
 40
0.0
 41
0.0
  0
SEQEND
  8
0
  5
334
  0
POLYLINE
  8
SCREEN
  6
DCAD_SOLID
 62
    16
 48
2.0
  5
335
 66
     1
 10
0.0
 20
0.0
 30
0.0
 70
   128
  0
VERTEX
  8
SCREEN
  6
DCAD_SOLID
 62
    16
 48
2.0
  5
336
 10
3.213848
 20
0.443093
 30
0.0
 40
0.0
 41
0.0
  0
VERTEX
  8
SCREEN
  6
DCAD_SOLID
 62
    16
 48
2.0
  5
337
 10
3.214938
 20
0.446959
 30
0.0
 40
0.0
 41
0.0
  0
SEQEND
  8
0
  5
338
  0
POLYLINE
  8
SCREEN
  6
DCAD_SOLID
 62
    16
 48
2.0
  5
339
 66
     1
 10
0.0
 20
0.0
 30
0.0
 70
   128
  0
VERTEX
  8
SCREEN
  6
DCAD_SOLID
 62
    16
 48
2.0
  5
33A
 10
3.213848
 20
0.450824
 30
0.0
 40
0.0
 41
0.0
  0
VERTEX
  8
SCREEN
  6
DCAD_SOLID
 62
    16
 48
2.0
  5
33B
 10
3.21221
 20
0.454688
 30
0.0
 40
0.0
 41
0.0
  0
SEQEND
  8
0
  5
33C
  0
POLYLINE
  8
SCREEN
  6
DCAD_SOLID
 62
    16
 48
2.0
  5
33D
 66
     1
 10
0.0
 20
0.0
 30
0.0
 70
   128
  0
VERTEX
  8
SCREEN
  6
DCAD_SOLID
 62
    16
 48
2.0
  5
33E
 10
3.21221
 20
0.454688
 30
0.0
 40
0.0
 41
0.0
  0
VERTEX
  8
SCREEN
  6
DCAD_SOLID
 62
    16
 48
2.0
  5
33F
 10
3.209485
 20
0.458232
 30
0.0
 40
0.0
 41
0.0
  0
SEQEND
  8
0
  5
340
  0
POLYLINE
  8
SCREEN
  6
DCAD_SOLID
 62
    16
 48
2.0
  5
341
 66
     1
 10
0.0
 20
0.0
 30
0.0
 70
   128
  0
VERTEX
  8
SCREEN
  6
DCAD_SOLID
 62
    16
 48
2.0
  5
342
 10
3.209485
 20
0.458232
 30
0.0
 40
0.0
 41
0.0
  0
VERTEX
  8
SCREEN
  6
DCAD_SOLID
 62
    16
 48
2.0
  5
343
 10
3.212574
 20
0.455653
 30
0.0
 40
0.0
 41
0.0
  0
SEQEND
  8
0
  5
344
  0
POLYLINE
  8
SCREEN
  6
DCAD_SOLID
 62
    16
 48
2.0
  5
345
 66
     1
 10
0.0
 20
0.0
 30
0.0
 70
   128
  0
VERTEX
  8
SCREEN
  6
DCAD_SOLID
 62
    16
 48
2.0
  5
346
 10
3.209119
 20
0.456943
 30
0.0
 40
0.0
 41
0.0
  0
VERTEX
  8
SCREEN
  6
DCAD_SOLID
 62
    16
 48
2.0
  5
347
 10
3.209485
 20
0.457264
 30
0.0
 40
0.0
 41
0.0
  0
SEQEND
  8
0
  5
348
  0
POLYLINE
  8
SCREEN
  6
DCAD_SOLID
 62
    16
 48
2.0
  5
349
 66
     1
 10
0.0
 20
0.0
 30
0.0
 70
   128
  0
VERTEX
  8
SCREEN
  6
DCAD_SOLID
 62
    16
 48
2.0
  5
34A
 10
3.058432
 20
0.410879
 30
0.0
 40
0.0
 41
0.0
  0
VERTEX
  8
SCREEN
  6
DCAD_SOLID
 62
    16
 48
2.0
  5
34B
 10
3.054615
 20
0.425213
 30
0.0
 40
0.0
 41
0.0
  0
VERTEX
  8
SCREEN
  6
DCAD_SOLID
 62
    16
 48
2.0
  5
34C
 10
3.054615
 20
0.425213
 30
0.0
 40
0.0
 41
0.0
  0
SEQEND
  8
0
  5
34D
  0
POLYLINE
  8
SCREEN
  6
DCAD_SOLID
 62
    16
 48
2.0
  5
34E
 66
     1
 10
0.0
 20
0.0
 30
0.0
 70
   128
  0
VERTEX
  8
SCREEN
  6
DCAD_SOLID
 62
    16
 48
2.0
  5
34F
 10
3.103147
 20
0.347098
 30
0.0
 40
0.0
 41
0.0
  0
VERTEX
  8
SCREEN
  6
DCAD_SOLID
 62
    16
 48
2.0
  5
350
 10
3.105148
 20
0.344359
 30
0.0
 40
0.0
 41
0.0
  0
VERTEX
  8
SCREEN
  6
DCAD_SOLID
 62
    16
 48
2.0
  5
351
 10
3.105148
 20
0.344359
 30
0.0
 40
0.0
 41
0.0
  0
SEQEND
  8
0
  5
352
  0
POLYLINE
  8
SCREEN
  6
DCAD_SOLID
 62
    16
 48
2.0
  5
353
 66
     1
 10
0.0
 20
0.0
 30
0.0
 70
   128
  0
VERTEX
  8
SCREEN
  6
DCAD_SOLID
 62
    16
 48
2.0
  5
354
 10
3.098785
 20
0.355475
 30
0.0
 40
0.0
 41
0.0
  0
VERTEX
  8
SCREEN
  6
DCAD_SOLID
 62
    16
 48
2.0
  5
355
 10
3.098057
 20
0.356279
 30
0.0
 40
0.0
 41
0.0
  0
SEQEND
  8
0
  5
356
  0
POLYLINE
  8
SCREEN
  6
DCAD_SOLID
 62
    16
 48
2.0
  5
357
 66
     1
 10
0.0
 20
0.0
 30
0.0
 70
   128
  0
VERTEX
  8
SCREEN
  6
DCAD_SOLID
 62
    16
 48
2.0
  5
358
 10
3.102782
 20
0.352896
 30
0.0
 40
0.0
 41
0.0
  0
VERTEX
  8
SCREEN
  6
DCAD_SOLID
 62
    16
 48
2.0
  5
359
 10
3.102601
 20
0.353217
 30
0.0
 40
0.0
 41
0.0
  0
SEQEND
  8
0
  5
35A
  0
POLYLINE
  8
SCREEN
  6
DCAD_SOLID
 62
    16
 48
2.0
  5
35B
 66
     1
 10
0.0
 20
0.0
 30
0.0
 70
   128
  0
VERTEX
  8
SCREEN
  6
DCAD_SOLID
 62
    16
 48
2.0
  5
35C
 10
3.133502
 20
0.523945
 30
0.0
 40
0.0
 41
0.0
  0
VERTEX
  8
SCREEN
  6
DCAD_SOLID
 62
    16
 48
2.0
  5
35D
 10
3.130777
 20
0.522498
 30
0.0
 40
0.0
 41
0.0
  0
SEQEND
  8
0
  5
35E
  0
POLYLINE
  8
SCREEN
  6
DCAD_SOLID
 62
    16
 48
2.0
  5
35F
 66
     1
 10
0.0
 20
0.0
 30
0.0
 70
   128
  0
VERTEX
  8
SCREEN
  6
DCAD_SOLID
 62
    16
 48
2.0
  5
360
 10
3.173312
 20
0.496887
 30
0.0
 40
0.0
 41
0.0
  0
VERTEX
  8
SCREEN
  6
DCAD_SOLID
 62
    16
 48
2.0
  5
361
 10
3.173268
 20
0.49491
 30
0.0
 40
0.0
 41
0.0
  0
VERTEX
  8
SCREEN
  6
DCAD_SOLID
 62
    16
 48
2.0
  5
362
 10
3.173268
 20
0.49491
 30
0.0
 40
0.0
 41
0.0
  0
SEQEND
  8
0
  5
363
  0
POLYLINE
  8
SCREEN
  6
DCAD_SOLID
 62
    16
 48
2.0
  5
364
 66
     1
 10
0.0
 20
0.0
 30
0.0
 70
   128
  0
VERTEX
  8
SCREEN
  6
DCAD_SOLID
 62
    16
 48
2.0
  5
365
 10
3.208394
 20
0.461129
 30
0.0
 40
0.0
 41
0.0
  0
VERTEX
  8
SCREEN
  6
DCAD_SOLID
 62
    16
 48
2.0
  5
366
 10
3.209667
 20
0.459357
 30
0.0
 40
0.0
 41
0.0
  0
SEQEND
  8
0
  5
367
  0
POLYLINE
  8
SCREEN
  6
DCAD_SOLID
 62
    16
 48
2.0
  5
368
 66
     1
 10
0.0
 20
0.0
 30
0.0
 70
   128
  0
VERTEX
  8
SCREEN
  6
DCAD_SOLID
 62
    16
 48
2.0
  5
369
 10
3.209485
 20
0.458232
 30
0.0
 40
0.0
 41
0.0
  0
VERTEX
  8
SCREEN
  6
DCAD_SOLID
 62
    16
 48
2.0
  5
36A
 10
3.207839
 20
0.458941
 30
0.0
 40
0.0
 41
0.0
  0
SEQEND
  8
0
  5
36B
  0
POLYLINE
  8
SCREEN
  6
DCAD_SOLID
 62
    16
 48
2.0
  5
36C
 66
     1
 10
0.0
 20
0.0
 30
0.0
 70
   128
  0
VERTEX
  8
SCREEN
  6
DCAD_SOLID
 62
    16
 48
2.0
  5
36D
 10
3.173268
 20
0.49491
 30
0.0
 40
0.0
 41
0.0
  0
VERTEX
  8
SCREEN
  6
DCAD_SOLID
 62
    16
 48
2.0
  5
36E
 10
3.160198
 20
0.500121
 30
0.0
 40
0.0
 41
0.0
  0
VERTEX
  8
SCREEN
  6
DCAD_SOLID
 62
    16
 48
2.0
  5
36F
 10
3.146307
 20
0.503239
 30
0.0
 40
0.0
 41
0.0
  0
VERTEX
  8
SCREEN
  6
DCAD_SOLID
 62
    16
 48
2.0
  5
370
 10
3.132016
 20
0.504173
 30
0.0
 40
0.0
 41
0.0
  0
VERTEX
  8
SCREEN
  6
DCAD_SOLID
 62
    16
 48
2.0
  5
371
 10
3.117758
 20
0.502896
 30
0.0
 40
0.0
 41
0.0
  0
VERTEX
  8
SCREEN
  6
DCAD_SOLID
 62
    16
 48
2.0
  5
372
 10
3.103968
 20
0.499445
 30
0.0
 40
0.0
 41
0.0
  0
VERTEX
  8
SCREEN
  6
DCAD_SOLID
 62
    16
 48
2.0
  5
373
 10
3.093385
 20
0.495101
 30
0.0
 40
0.0
 41
0.0
  0
SEQEND
  8
0
  5
374
  0
POLYLINE
  8
SCREEN
  6
DCAD_SOLID
 62
    16
 48
2.0
  5
375
 66
     1
 10
0.0
 20
0.0
 30
0.0
 70
   128
  0
VERTEX
  8
SCREEN
  6
DCAD_SOLID
 62
    16
 48
2.0
  5
376
 10
3.208078
 20
0.412871
 30
0.0
 40
0.0
 41
0.0
  0
VERTEX
  8
SCREEN
  6
DCAD_SOLID
 62
    16
 48
2.0
  5
377
 10
3.211276
 20
0.424931
 30
0.0
 40
0.0
 41
0.0
  0
VERTEX
  8
SCREEN
  6
DCAD_SOLID
 62
    16
 48
2.0
  5
378
 10
3.21206
 20
0.437296
 30
0.0
 40
0.0
 41
0.0
  0
VERTEX
  8
SCREEN
  6
DCAD_SOLID
 62
    16
 48
2.0
  5
379
 10
3.210411
 20
0.449596
 30
0.0
 40
0.0
 41
0.0
  0
VERTEX
  8
SCREEN
  6
DCAD_SOLID
 62
    16
 48
2.0
  5
37A
 10
3.207504
 20
0.4588
 30
0.0
 40
0.0
 41
0.0
  0
SEQEND
  8
0
  5
37B
  0
POLYLINE
  8
SCREEN
  6
DCAD_SOLID
 62
    16
 48
2.0
  5
37C
 66
     1
 10
0.0
 20
0.0
 30
0.0
 70
   128
  0
VERTEX
  8
SCREEN
  6
DCAD_SOLID
 62
    16
 48
2.0
  5
37D
 10
3.093486
 20
0.377131
 30
0.0
 40
0.0
 41
0.0
  0
VERTEX
  8
SCREEN
  6
DCAD_SOLID
 62
    16
 48
2.0
  5
37E
 10
3.105468
 20
0.371694
 30
0.0
 40
0.0
 41
0.0
  0
VERTEX
  8
SCREEN
  6
DCAD_SOLID
 62
    16
 48
2.0
  5
37F
 10
3.118334
 20
0.368186
 30
0.0
 40
0.0
 41
0.0
  0
VERTEX
  8
SCREEN
  6
DCAD_SOLID
 62
    16
 48
2.0
  5
380
 10
3.131693
 20
0.366709
 30
0.0
 40
0.0
 41
0.0
  0
VERTEX
  8
SCREEN
  6
DCAD_SOLID
 62
    16
 48
2.0
  5
381
 10
3.145138
 20
0.367311
 30
0.0
 40
0.0
 41
0.0
  0
VERTEX
  8
SCREEN
  6
DCAD_SOLID
 62
    16
 48
2.0
  5
382
 10
3.15826
 20
0.369975
 30
0.0
 40
0.0
 41
0.0
  0
VERTEX
  8
SCREEN
  6
DCAD_SOLID
 62
    16
 48
2.0
  5
383
 10
3.170662
 20
0.374615
 30
0.0
 40
0.0
 41
0.0
  0
VERTEX
  8
SCREEN
  6
DCAD_SOLID
 62
    16
 48
2.0
  5
384
 10
3.175581
 20
0.377131
 30
0.0
 40
0.0
 41
0.0
  0
SEQEND
  8
0
  5
385
  0
POLYLINE
  8
SCREEN
  6
DCAD_SOLID
 62
    16
 48
2.0
  5
386
 66
     1
 10
0.0
 20
0.0
 30
0.0
 70
   128
  0
VERTEX
  8
SCREEN
  6
DCAD_SOLID
 62
    16
 48
2.0
  5
387
 10
3.063515
 20
0.462493
 30
0.0
 40
0.0
 41
0.0
  0
VERTEX
  8
SCREEN
  6
DCAD_SOLID
 62
    16
 48
2.0
  5
388
 10
3.059268
 20
0.451288
 30
0.0
 40
0.0
 41
0.0
  0
VERTEX
  8
SCREEN
  6
DCAD_SOLID
 62
    16
 48
2.0
  5
389
 10
3.057281
 20
0.439598
 30
0.0
 40
0.0
 41
0.0
  0
VERTEX
  8
SCREEN
  6
DCAD_SOLID
 62
    16
 48
2.0
  5
38A
 10
3.057613
 20
0.427783
 30
0.0
 40
0.0
 41
0.0
  0
VERTEX
  8
SCREEN
  6
DCAD_SOLID
 62
    16
 48
2.0
  5
38B
 10
3.060258
 20
0.416194
 30
0.0
 40
0.0
 41
0.0
  0
VERTEX
  8
SCREEN
  6
DCAD_SOLID
 62
    16
 48
2.0
  5
38C
 10
3.06088
 20
0.414414
 30
0.0
 40
0.0
 41
0.0
  0
SEQEND
  8
0
  5
38D
  0
POLYLINE
  8
SCREEN
  6
DCAD_SOLID
 62
    16
 48
2.0
  5
38E
 66
     1
 10
0.0
 20
0.0
 30
0.0
 70
   128
  0
VERTEX
  8
SCREEN
  6
DCAD_SOLID
 62
    16
 48
2.0
  5
38F
 10
3.182296
 20
0.832618
 30
0.0
 40
0.0
 41
0.0
  0
VERTEX
  8
SCREEN
  6
DCAD_SOLID
 62
    16
 48
2.0
  5
390
 10
3.209095
 20
0.832618
 30
0.0
 40
0.0
 41
0.0
  0
VERTEX
  8
SCREEN
  6
DCAD_SOLID
 62
    16
 48
2.0
  5
391
 10
3.194477
 20
0.81607
 30
0.0
 40
0.0
 41
0.0
  0
VERTEX
  8
SCREEN
  6
DCAD_SOLID
 62
    16
 48
2.0
  5
392
 10
3.201782
 20
0.81607
 30
0.0
 40
0.0
 41
0.0
  0
VERTEX
  8
SCREEN
  6
DCAD_SOLID
 62
    16
 48
2.0
  5
393
 10
3.206657
 20
0.814006
 30
0.0
 40
0.0
 41
0.0
  0
VERTEX
  8
SCREEN
  6
DCAD_SOLID
 62
    16
 48
2.0
  5
394
 10
3.209095
 20
0.811942
 30
0.0
 40
0.0
 41
0.0
  0
VERTEX
  8
SCREEN
  6
DCAD_SOLID
 62
    16
 48
2.0
  5
395
 10
3.21153
 20
0.805743
 30
0.0
 40
0.0
 41
0.0
  0
VERTEX
  8
SCREEN
  6
DCAD_SOLID
 62
    16
 48
2.0
  5
396
 10
3.21153
 20
0.801601
 30
0.0
 40
0.0
 41
0.0
  0
VERTEX
  8
SCREEN
  6
DCAD_SOLID
 62
    16
 48
2.0
  5
397
 10
3.209095
 20
0.795409
 30
0.0
 40
0.0
 41
0.0
  0
VERTEX
  8
SCREEN
  6
DCAD_SOLID
 62
    16
 48
2.0
  5
398
 10
3.204221
 20
0.79127
 30
0.0
 40
0.0
 41
0.0
  0
VERTEX
  8
SCREEN
  6
DCAD_SOLID
 62
    16
 48
2.0
  5
399
 10
3.196912
 20
0.789195
 30
0.0
 40
0.0
 41
0.0
  0
VERTEX
  8
SCREEN
  6
DCAD_SOLID
 62
    16
 48
2.0
  5
39A
 10
3.189601
 20
0.789195
 30
0.0
 40
0.0
 41
0.0
  0
VERTEX
  8
SCREEN
  6
DCAD_SOLID
 62
    16
 48
2.0
  5
39B
 10
3.182296
 20
0.79127
 30
0.0
 40
0.0
 41
0.0
  0
VERTEX
  8
SCREEN
  6
DCAD_SOLID
 62
    16
 48
2.0
  5
39C
 10
3.179855
 20
0.793334
 30
0.0
 40
0.0
 41
0.0
  0
VERTEX
  8
SCREEN
  6
DCAD_SOLID
 62
    16
 48
2.0
  5
39D
 10
3.177421
 20
0.797469
 30
0.0
 40
0.0
 41
0.0
  0
SEQEND
  8
0
  5
39E
  0
POLYLINE
  8
SCREEN
  6
DCAD_SOLID
 62
    16
 48
2.0
  5
39F
 66
     1
 10
0.0
 20
0.0
 30
0.0
 70
   128
  0
VERTEX
  8
SCREEN
  6
DCAD_SOLID
 62
    16
 48
2.0
  5
3A0
 10
2.937405
 20
0.438288
 30
0.0
 40
0.0
 41
0.0
  0
VERTEX
  8
SCREEN
  6
DCAD_SOLID
 62
    16
 48
2.0
  5
3A1
 10
2.937405
 20
0.396129
 30
0.0
 40
0.0
 41
0.0
  0
SEQEND
  8
0
  5
3A2
  0
POLYLINE
  8
SCREEN
  6
DCAD_SOLID
 62
    16
 48
2.0
  5
3A3
 66
     1
 10
0.0
 20
0.0
 30
0.0
 70
   128
  0
VERTEX
  8
SCREEN
  6
DCAD_SOLID
 62
    16
 48
2.0
  5
3A4
 10
3.375968
 20
0.956213
 30
0.0
 40
0.0
 41
0.0
  0
VERTEX
  8
SCREEN
  6
DCAD_SOLID
 62
    16
 48
2.0
  5
3A5
 10
3.375968
 20
0.923128
 30
0.0
 40
0.0
 41
0.0
  0
VERTEX
  8
SCREEN
  6
DCAD_SOLID
 62
    16
 48
2.0
  5
3A6
 10
3.373531
 20
0.916929
 30
0.0
 40
0.0
 41
0.0
  0
VERTEX
  8
SCREEN
  6
DCAD_SOLID
 62
    16
 48
2.0
  5
3A7
 10
3.371091
 20
0.914866
 30
0.0
 40
0.0
 41
0.0
  0
VERTEX
  8
SCREEN
  6
DCAD_SOLID
 62
    16
 48
2.0
  5
3A8
 10
3.366224
 20
0.91279
 30
0.0
 40
0.0
 41
0.0
  0
VERTEX
  8
SCREEN
  6
DCAD_SOLID
 62
    16
 48
2.0
  5
3A9
 10
3.361347
 20
0.91279
 30
0.0
 40
0.0
 41
0.0
  0
VERTEX
  8
SCREEN
  6
DCAD_SOLID
 62
    16
 48
2.0
  5
3AA
 10
3.356475
 20
0.914866
 30
0.0
 40
0.0
 41
0.0
  0
VERTEX
  8
SCREEN
  6
DCAD_SOLID
 62
    16
 48
2.0
  5
3AB
 10
3.354043
 20
0.916929
 30
0.0
 40
0.0
 41
0.0
  0
VERTEX
  8
SCREEN
  6
DCAD_SOLID
 62
    16
 48
2.0
  5
3AC
 10
3.351602
 20
0.923128
 30
0.0
 40
0.0
 41
0.0
  0
VERTEX
  8
SCREEN
  6
DCAD_SOLID
 62
    16
 48
2.0
  5
3AD
 10
3.351602
 20
0.927263
 30
0.0
 40
0.0
 41
0.0
  0
SEQEND
  8
0
  5
3AE
  0
POLYLINE
  8
SCREEN
  6
DCAD_SOLID
 62
    16
 48
2.0
  5
3AF
 66
     1
 10
0.0
 20
0.0
 30
0.0
 70
   128
  0
VERTEX
  8
SCREEN
  6
DCAD_SOLID
 62
    16
 48
2.0
  5
3B0
 10
3.35347
 20
0.101802
 30
0.0
 40
0.0
 41
0.0
  0
VERTEX
  8
SCREEN
  6
DCAD_SOLID
 62
    16
 48
2.0
  5
3B1
 10
3.35347
 20
0.068717
 30
0.0
 40
0.0
 41
0.0
  0
VERTEX
  8
SCREEN
  6
DCAD_SOLID
 62
    16
 48
2.0
  5
3B2
 10
3.351033
 20
0.062518
 30
0.0
 40
0.0
 41
0.0
  0
VERTEX
  8
SCREEN
  6
DCAD_SOLID
 62
    16
 48
2.0
  5
3B3
 10
3.348593
 20
0.060454
 30
0.0
 40
0.0
 41
0.0
  0
VERTEX
  8
SCREEN
  6
DCAD_SOLID
 62
    16
 48
2.0
  5
3B4
 10
3.343726
 20
0.058379
 30
0.0
 40
0.0
 41
0.0
  0
VERTEX
  8
SCREEN
  6
DCAD_SOLID
 62
    16
 48
2.0
  5
3B5
 10
3.338849
 20
0.058379
 30
0.0
 40
0.0
 41
0.0
  0
VERTEX
  8
SCREEN
  6
DCAD_SOLID
 62
    16
 48
2.0
  5
3B6
 10
3.333977
 20
0.060454
 30
0.0
 40
0.0
 41
0.0
  0
VERTEX
  8
SCREEN
  6
DCAD_SOLID
 62
    16
 48
2.0
  5
3B7
 10
3.331545
 20
0.062518
 30
0.0
 40
0.0
 41
0.0
  0
VERTEX
  8
SCREEN
  6
DCAD_SOLID
 62
    16
 48
2.0
  5
3B8
 10
3.329104
 20
0.068717
 30
0.0
 40
0.0
 41
0.0
  0
VERTEX
  8
SCREEN
  6
DCAD_SOLID
 62
    16
 48
2.0
  5
3B9
 10
3.329104
 20
0.072852
 30
0.0
 40
0.0
 41
0.0
  0
SEQEND
  8
0
  5
3BA
  0
POLYLINE
  8
SCREEN
  6
DCAD_SOLID
 62
    16
 48
2.0
  5
3BB
 66
     1
 10
0.0
 20
0.0
 30
0.0
 70
   128
  0
VERTEX
  8
SCREEN
  6
DCAD_SOLID
 62
    16
 48
2.0
  5
3BC
 10
2.936041
 20
0.029224
 30
0.0
 40
0.0
 41
0.0
  0
VERTEX
  8
SCREEN
  6
DCAD_SOLID
 62
    16
 48
2.0
  5
3BD
 10
2.936041
 20
-0.008376
 30
0.0
 40
0.0
 41
0.0
  0
SEQEND
  8
0
  5
3BE
  0
POLYLINE
  8
SCREEN
  6
DCAD_SOLID
 62
    16
 48
2.0
  5
3BF
 66
     1
 10
0.0
 20
0.0
 30
0.0
 70
   128
  0
VERTEX
  8
SCREEN
  6
DCAD_SOLID
 62
    16
 48
2.0
  5
3C0
 10
2.936041
 20
0.029224
 30
0.0
 40
0.0
 41
0.0
  0
VERTEX
  8
SCREEN
  6
DCAD_SOLID
 62
    16
 48
2.0
  5
3C1
 10
2.951005
 20
-0.008376
 30
0.0
 40
0.0
 41
0.0
  0
SEQEND
  8
0
  5
3C2
  0
POLYLINE
  8
SCREEN
  6
DCAD_SOLID
 62
    16
 48
2.0
  5
3C3
 66
     1
 10
0.0
 20
0.0
 30
0.0
 70
   128
  0
VERTEX
  8
SCREEN
  6
DCAD_SOLID
 62
    16
 48
2.0
  5
3C4
 10
2.96602
 20
0.029224
 30
0.0
 40
0.0
 41
0.0
  0
VERTEX
  8
SCREEN
  6
DCAD_SOLID
 62
    16
 48
2.0
  5
3C5
 10
2.951005
 20
-0.008376
 30
0.0
 40
0.0
 41
0.0
  0
SEQEND
  8
0
  5
3C6
  0
POLYLINE
  8
SCREEN
  6
DCAD_SOLID
 62
    16
 48
2.0
  5
3C7
 66
     1
 10
0.0
 20
0.0
 30
0.0
 70
   128
  0
VERTEX
  8
SCREEN
  6
DCAD_SOLID
 62
    16
 48
2.0
  5
3C8
 10
2.96602
 20
0.029224
 30
0.0
 40
0.0
 41
0.0
  0
VERTEX
  8
SCREEN
  6
DCAD_SOLID
 62
    16
 48
2.0
  5
3C9
 10
2.96602
 20
-0.008376
 30
0.0
 40
0.0
 41
0.0
  0
SEQEND
  8
0
  5
3CA
  0
POLYLINE
  8
SCREEN
  6
DCAD_SOLID
 62
    16
 48
2.0
  5
3CB
 66
     1
 10
0.0
 20
0.0
 30
0.0
 70
   128
  0
VERTEX
  8
SCREEN
  6
DCAD_SOLID
 62
    16
 48
2.0
  5
3CC
 10
2.992272
 20
0.029224
 30
0.0
 40
0.0
 41
0.0
  0
VERTEX
  8
SCREEN
  6
DCAD_SOLID
 62
    16
 48
2.0
  5
3CD
 10
2.977256
 20
-0.008376
 30
0.0
 40
0.0
 41
0.0
  0
SEQEND
  8
0
  5
3CE
  0
POLYLINE
  8
SCREEN
  6
DCAD_SOLID
 62
    16
 48
2.0
  5
3CF
 66
     1
 10
0.0
 20
0.0
 30
0.0
 70
   128
  0
VERTEX
  8
SCREEN
  6
DCAD_SOLID
 62
    16
 48
2.0
  5
3D0
 10
2.992272
 20
0.029224
 30
0.0
 40
0.0
 41
0.0
  0
VERTEX
  8
SCREEN
  6
DCAD_SOLID
 62
    16
 48
2.0
  5
3D1
 10
3.007288
 20
-0.008376
 30
0.0
 40
0.0
 41
0.0
  0
SEQEND
  8
0
  5
3D2
  0
POLYLINE
  8
SCREEN
  6
DCAD_SOLID
 62
    16
 48
2.0
  5
3D3
 66
     1
 10
0.0
 20
0.0
 30
0.0
 70
   128
  0
VERTEX
  8
SCREEN
  6
DCAD_SOLID
 62
    16
 48
2.0
  5
3D4
 10
2.982927
 20
0.004157
 30
0.0
 40
0.0
 41
0.0
  0
VERTEX
  8
SCREEN
  6
DCAD_SOLID
 62
    16
 48
2.0
  5
3D5
 10
3.00167
 20
0.004157
 30
0.0
 40
0.0
 41
0.0
  0
SEQEND
  8
0
  5
3D6
  0
POLYLINE
  8
SCREEN
  6
DCAD_SOLID
 62
    16
 48
2.0
  5
3D7
 66
     1
 10
0.0
 20
0.0
 30
0.0
 70
   128
  0
VERTEX
  8
SCREEN
  6
DCAD_SOLID
 62
    16
 48
2.0
  5
3D8
 10
3.018524
 20
0.029224
 30
0.0
 40
0.0
 41
0.0
  0
VERTEX
  8
SCREEN
  6
DCAD_SOLID
 62
    16
 48
2.0
  5
3D9
 10
3.018524
 20
-0.008376
 30
0.0
 40
0.0
 41
0.0
  0
SEQEND
  8
0
  5
3DA
  0
POLYLINE
  8
SCREEN
  6
DCAD_SOLID
 62
    16
 48
2.0
  5
3DB
 66
     1
 10
0.0
 20
0.0
 30
0.0
 70
   128
  0
VERTEX
  8
SCREEN
  6
DCAD_SOLID
 62
    16
 48
2.0
  5
3DC
 10
3.018524
 20
0.029224
 30
0.0
 40
0.0
 41
0.0
  0
VERTEX
  8
SCREEN
  6
DCAD_SOLID
 62
    16
 48
2.0
  5
3DD
 10
3.031649
 20
0.029224
 30
0.0
 40
0.0
 41
0.0
  0
VERTEX
  8
SCREEN
  6
DCAD_SOLID
 62
    16
 48
2.0
  5
3DE
 10
3.037266
 20
0.027469
 30
0.0
 40
0.0
 41
0.0
  0
VERTEX
  8
SCREEN
  6
DCAD_SOLID
 62
    16
 48
2.0
  5
3DF
 10
3.041047
 20
0.02386
 30
0.0
 40
0.0
 41
0.0
  0
VERTEX
  8
SCREEN
  6
DCAD_SOLID
 62
    16
 48
2.0
  5
3E0
 10
3.042884
 20
0.020298
 30
0.0
 40
0.0
 41
0.0
  0
VERTEX
  8
SCREEN
  6
DCAD_SOLID
 62
    16
 48
2.0
  5
3E1
 10
3.044775
 20
0.014936
 30
0.0
 40
0.0
 41
0.0
  0
VERTEX
  8
SCREEN
  6
DCAD_SOLID
 62
    16
 48
2.0
  5
3E2
 10
3.044775
 20
0.005961
 30
0.0
 40
0.0
 41
0.0
  0
VERTEX
  8
SCREEN
  6
DCAD_SOLID
 62
    16
 48
2.0
  5
3E3
 10
3.042884
 20
0.000598
 30
0.0
 40
0.0
 41
0.0
  0
VERTEX
  8
SCREEN
  6
DCAD_SOLID
 62
    16
 48
2.0
  5
3E4
 10
3.041047
 20
-0.003013
 30
0.0
 40
0.0
 41
0.0
  0
VERTEX
  8
SCREEN
  6
DCAD_SOLID
 62
    16
 48
2.0
  5
3E5
 10
3.037266
 20
-0.006573
 30
0.0
 40
0.0
 41
0.0
  0
VERTEX
  8
SCREEN
  6
DCAD_SOLID
 62
    16
 48
2.0
  5
3E6
 10
3.031649
 20
-0.008376
 30
0.0
 40
0.0
 41
0.0
  0
VERTEX
  8
SCREEN
  6
DCAD_SOLID
 62
    16
 48
2.0
  5
3E7
 10
3.018524
 20
-0.008376
 30
0.0
 40
0.0
 41
0.0
  0
SEQEND
  8
0
  5
3E8
  0
POLYLINE
  8
SCREEN
  6
DCAD_SOLID
 62
    16
 48
2.0
  5
3E9
 66
     1
 10
0.0
 20
0.0
 30
0.0
 70
   128
  0
VERTEX
  8
SCREEN
  6
DCAD_SOLID
 62
    16
 48
2.0
  5
3EA
 10
3.05979
 20
0.029224
 30
0.0
 40
0.0
 41
0.0
  0
VERTEX
  8
SCREEN
  6
DCAD_SOLID
 62
    16
 48
2.0
  5
3EB
 10
3.05979
 20
-0.008376
 30
0.0
 40
0.0
 41
0.0
  0
SEQEND
  8
0
  5
3EC
  0
POLYLINE
  8
SCREEN
  6
DCAD_SOLID
 62
    16
 48
2.0
  5
3ED
 66
     1
 10
0.0
 20
0.0
 30
0.0
 70
   128
  0
VERTEX
  8
SCREEN
  6
DCAD_SOLID
 62
    16
 48
2.0
  5
3EE
 10
3.05979
 20
0.029224
 30
0.0
 40
0.0
 41
0.0
  0
VERTEX
  8
SCREEN
  6
DCAD_SOLID
 62
    16
 48
2.0
  5
3EF
 10
3.084152
 20
0.029224
 30
0.0
 40
0.0
 41
0.0
  0
SEQEND
  8
0
  5
3F0
  0
POLYLINE
  8
SCREEN
  6
DCAD_SOLID
 62
    16
 48
2.0
  5
3F1
 66
     1
 10
0.0
 20
0.0
 30
0.0
 70
   128
  0
VERTEX
  8
SCREEN
  6
DCAD_SOLID
 62
    16
 48
2.0
  5
3F2
 10
3.05979
 20
0.011327
 30
0.0
 40
0.0
 41
0.0
  0
VERTEX
  8
SCREEN
  6
DCAD_SOLID
 62
    16
 48
2.0
  5
3F3
 10
3.074806
 20
0.011327
 30
0.0
 40
0.0
 41
0.0
  0
SEQEND
  8
0
  5
3F4
  0
POLYLINE
  8
SCREEN
  6
DCAD_SOLID
 62
    16
 48
2.0
  5
3F5
 66
     1
 10
0.0
 20
0.0
 30
0.0
 70
   128
  0
VERTEX
  8
SCREEN
  6
DCAD_SOLID
 62
    16
 48
2.0
  5
3F6
 10
3.05979
 20
-0.008376
 30
0.0
 40
0.0
 41
0.0
  0
VERTEX
  8
SCREEN
  6
DCAD_SOLID
 62
    16
 48
2.0
  5
3F7
 10
3.084152
 20
-0.008376
 30
0.0
 40
0.0
 41
0.0
  0
SEQEND
  8
0
  5
3F8
  0
POLYLINE
  8
SCREEN
  6
DCAD_SOLID
 62
    16
 48
2.0
  5
3F9
 66
     1
 10
0.0
 20
0.0
 30
0.0
 70
   128
  0
VERTEX
  8
SCREEN
  6
DCAD_SOLID
 62
    16
 48
2.0
  5
3FA
 10
3.134765
 20
0.029224
 30
0.0
 40
0.0
 41
0.0
  0
VERTEX
  8
SCREEN
  6
DCAD_SOLID
 62
    16
 48
2.0
  5
3FB
 10
3.134765
 20
-0.008376
 30
0.0
 40
0.0
 41
0.0
  0
SEQEND
  8
0
  5
3FC
  0
POLYLINE
  8
SCREEN
  6
DCAD_SOLID
 62
    16
 48
2.0
  5
3FD
 66
     1
 10
0.0
 20
0.0
 30
0.0
 70
   128
  0
VERTEX
  8
SCREEN
  6
DCAD_SOLID
 62
    16
 48
2.0
  5
3FE
 10
3.15167
 20
0.029224
 30
0.0
 40
0.0
 41
0.0
  0
VERTEX
  8
SCREEN
  6
DCAD_SOLID
 62
    16
 48
2.0
  5
3FF
 10
3.15167
 20
-0.008376
 30
0.0
 40
0.0
 41
0.0
  0
SEQEND
  8
0
  5
400
  0
POLYLINE
  8
SCREEN
  6
DCAD_SOLID
 62
    16
 48
2.0
  5
401
 66
     1
 10
0.0
 20
0.0
 30
0.0
 70
   128
  0
VERTEX
  8
SCREEN
  6
DCAD_SOLID
 62
    16
 48
2.0
  5
402
 10
3.15167
 20
0.029224
 30
0.0
 40
0.0
 41
0.0
  0
VERTEX
  8
SCREEN
  6
DCAD_SOLID
 62
    16
 48
2.0
  5
403
 10
3.177922
 20
-0.008376
 30
0.0
 40
0.0
 41
0.0
  0
SEQEND
  8
0
  5
404
  0
POLYLINE
  8
SCREEN
  6
DCAD_SOLID
 62
    16
 48
2.0
  5
405
 66
     1
 10
0.0
 20
0.0
 30
0.0
 70
   128
  0
VERTEX
  8
SCREEN
  6
DCAD_SOLID
 62
    16
 48
2.0
  5
406
 10
3.177922
 20
0.029224
 30
0.0
 40
0.0
 41
0.0
  0
VERTEX
  8
SCREEN
  6
DCAD_SOLID
 62
    16
 48
2.0
  5
407
 10
3.177922
 20
-0.008376
 30
0.0
 40
0.0
 41
0.0
  0
SEQEND
  8
0
  5
408
  0
POLYLINE
  8
SCREEN
  6
DCAD_SOLID
 62
    16
 48
2.0
  5
409
 66
     1
 10
0.0
 20
0.0
 30
0.0
 70
   128
  0
VERTEX
  8
SCREEN
  6
DCAD_SOLID
 62
    16
 48
2.0
  5
40A
 10
3.232315
 20
0.029224
 30
0.0
 40
0.0
 41
0.0
  0
VERTEX
  8
SCREEN
  6
DCAD_SOLID
 62
    16
 48
2.0
  5
40B
 10
3.232315
 20
0.002402
 30
0.0
 40
0.0
 41
0.0
  0
VERTEX
  8
SCREEN
  6
DCAD_SOLID
 62
    16
 48
2.0
  5
40C
 10
3.234152
 20
-0.003013
 30
0.0
 40
0.0
 41
0.0
  0
VERTEX
  8
SCREEN
  6
DCAD_SOLID
 62
    16
 48
2.0
  5
40D
 10
3.237933
 20
-0.006573
 30
0.0
 40
0.0
 41
0.0
  0
VERTEX
  8
SCREEN
  6
DCAD_SOLID
 62
    16
 48
2.0
  5
40E
 10
3.243551
 20
-0.008376
 30
0.0
 40
0.0
 41
0.0
  0
VERTEX
  8
SCREEN
  6
DCAD_SOLID
 62
    16
 48
2.0
  5
40F
 10
3.247278
 20
-0.008376
 30
0.0
 40
0.0
 41
0.0
  0
VERTEX
  8
SCREEN
  6
DCAD_SOLID
 62
    16
 48
2.0
  5
410
 10
3.252896
 20
-0.006573
 30
0.0
 40
0.0
 41
0.0
  0
VERTEX
  8
SCREEN
  6
DCAD_SOLID
 62
    16
 48
2.0
  5
411
 10
3.256676
 20
-0.003013
 30
0.0
 40
0.0
 41
0.0
  0
VERTEX
  8
SCREEN
  6
DCAD_SOLID
 62
    16
 48
2.0
  5
412
 10
3.258566
 20
0.002402
 30
0.0
 40
0.0
 41
0.0
  0
VERTEX
  8
SCREEN
  6
DCAD_SOLID
 62
    16
 48
2.0
  5
413
 10
3.258566
 20
0.029224
 30
0.0
 40
0.0
 41
0.0
  0
SEQEND
  8
0
  5
414
  0
POLYLINE
  8
SCREEN
  6
DCAD_SOLID
 62
    16
 48
2.0
  5
415
 66
     1
 10
0.0
 20
0.0
 30
0.0
 70
   129
  0
VERTEX
  8
SCREEN
  6
DCAD_SOLID
 62
    16
 48
2.0
  5
416
 10
3.27731
 20
-0.004768
 30
0.0
 40
0.0
 41
0.0
  0
VERTEX
  8
SCREEN
  6
DCAD_SOLID
 62
    16
 48
2.0
  5
417
 10
3.275419
 20
-0.006573
 30
0.0
 40
0.0
 41
0.0
  0
VERTEX
  8
SCREEN
  6
DCAD_SOLID
 62
    16
 48
2.0
  5
418
 10
3.27731
 20
-0.008376
 30
0.0
 40
0.0
 41
0.0
  0
VERTEX
  8
SCREEN
  6
DCAD_SOLID
 62
    16
 48
2.0
  5
419
 10
3.279148
 20
-0.006573
 30
0.0
 40
0.0
 41
0.0
  0
VERTEX
  8
SCREEN
  6
DCAD_SOLID
 62
    16
 48
2.0
  5
41A
 10
3.27731
 20
-0.004768
 30
0.0
 40
0.0
 41
0.0
  0
SEQEND
  8
0
  5
41B
  0
POLYLINE
  8
SCREEN
  6
DCAD_SOLID
 62
    16
 48
2.0
  5
41C
 66
     1
 10
0.0
 20
0.0
 30
0.0
 70
   128
  0
VERTEX
  8
SCREEN
  6
DCAD_SOLID
 62
    16
 48
2.0
  5
41D
 10
3.320415
 20
0.02386
 30
0.0
 40
0.0
 41
0.0
  0
VERTEX
  8
SCREEN
  6
DCAD_SOLID
 62
    16
 48
2.0
  5
41E
 10
3.316686
 20
0.027469
 30
0.0
 40
0.0
 41
0.0
  0
VERTEX
  8
SCREEN
  6
DCAD_SOLID
 62
    16
 48
2.0
  5
41F
 10
3.311069
 20
0.029224
 30
0.0
 40
0.0
 41
0.0
  0
VERTEX
  8
SCREEN
  6
DCAD_SOLID
 62
    16
 48
2.0
  5
420
 10
3.303562
 20
0.029224
 30
0.0
 40
0.0
 41
0.0
  0
VERTEX
  8
SCREEN
  6
DCAD_SOLID
 62
    16
 48
2.0
  5
421
 10
3.297944
 20
0.027469
 30
0.0
 40
0.0
 41
0.0
  0
VERTEX
  8
SCREEN
  6
DCAD_SOLID
 62
    16
 48
2.0
  5
422
 10
3.294163
 20
0.02386
 30
0.0
 40
0.0
 41
0.0
  0
VERTEX
  8
SCREEN
  6
DCAD_SOLID
 62
    16
 48
2.0
  5
423
 10
3.294163
 20
0.020298
 30
0.0
 40
0.0
 41
0.0
  0
VERTEX
  8
SCREEN
  6
DCAD_SOLID
 62
    16
 48
2.0
  5
424
 10
3.296052
 20
0.01669
 30
0.0
 40
0.0
 41
0.0
  0
VERTEX
  8
SCREEN
  6
DCAD_SOLID
 62
    16
 48
2.0
  5
425
 10
3.297944
 20
0.014936
 30
0.0
 40
0.0
 41
0.0
  0
VERTEX
  8
SCREEN
  6
DCAD_SOLID
 62
    16
 48
2.0
  5
426
 10
3.301671
 20
0.013131
 30
0.0
 40
0.0
 41
0.0
  0
VERTEX
  8
SCREEN
  6
DCAD_SOLID
 62
    16
 48
2.0
  5
427
 10
3.312907
 20
0.00952
 30
0.0
 40
0.0
 41
0.0
  0
VERTEX
  8
SCREEN
  6
DCAD_SOLID
 62
    16
 48
2.0
  5
428
 10
3.316686
 20
0.007765
 30
0.0
 40
0.0
 41
0.0
  0
VERTEX
  8
SCREEN
  6
DCAD_SOLID
 62
    16
 48
2.0
  5
429
 10
3.318524
 20
0.005961
 30
0.0
 40
0.0
 41
0.0
  0
VERTEX
  8
SCREEN
  6
DCAD_SOLID
 62
    16
 48
2.0
  5
42A
 10
3.320415
 20
0.002402
 30
0.0
 40
0.0
 41
0.0
  0
VERTEX
  8
SCREEN
  6
DCAD_SOLID
 62
    16
 48
2.0
  5
42B
 10
3.320415
 20
-0.003013
 30
0.0
 40
0.0
 41
0.0
  0
VERTEX
  8
SCREEN
  6
DCAD_SOLID
 62
    16
 48
2.0
  5
42C
 10
3.316686
 20
-0.006573
 30
0.0
 40
0.0
 41
0.0
  0
VERTEX
  8
SCREEN
  6
DCAD_SOLID
 62
    16
 48
2.0
  5
42D
 10
3.311069
 20
-0.008376
 30
0.0
 40
0.0
 41
0.0
  0
VERTEX
  8
SCREEN
  6
DCAD_SOLID
 62
    16
 48
2.0
  5
42E
 10
3.303562
 20
-0.008376
 30
0.0
 40
0.0
 41
0.0
  0
VERTEX
  8
SCREEN
  6
DCAD_SOLID
 62
    16
 48
2.0
  5
42F
 10
3.297944
 20
-0.006573
 30
0.0
 40
0.0
 41
0.0
  0
VERTEX
  8
SCREEN
  6
DCAD_SOLID
 62
    16
 48
2.0
  5
430
 10
3.294163
 20
-0.003013
 30
0.0
 40
0.0
 41
0.0
  0
SEQEND
  8
0
  5
431
  0
POLYLINE
  8
SCREEN
  6
DCAD_SOLID
 62
    16
 48
2.0
  5
432
 66
     1
 10
0.0
 20
0.0
 30
0.0
 70
   129
  0
VERTEX
  8
SCREEN
  6
DCAD_SOLID
 62
    16
 48
2.0
  5
433
 10
3.337321
 20
-0.004768
 30
0.0
 40
0.0
 41
0.0
  0
VERTEX
  8
SCREEN
  6
DCAD_SOLID
 62
    16
 48
2.0
  5
434
 10
3.33543
 20
-0.006573
 30
0.0
 40
0.0
 41
0.0
  0
VERTEX
  8
SCREEN
  6
DCAD_SOLID
 62
    16
 48
2.0
  5
435
 10
3.337321
 20
-0.008376
 30
0.0
 40
0.0
 41
0.0
  0
VERTEX
  8
SCREEN
  6
DCAD_SOLID
 62
    16
 48
2.0
  5
436
 10
3.339158
 20
-0.006573
 30
0.0
 40
0.0
 41
0.0
  0
VERTEX
  8
SCREEN
  6
DCAD_SOLID
 62
    16
 48
2.0
  5
437
 10
3.337321
 20
-0.004768
 30
0.0
 40
0.0
 41
0.0
  0
SEQEND
  8
0
  5
438
  0
POLYLINE
  8
SCREEN
  6
DCAD_SOLID
 62
    16
 48
2.0
  5
439
 66
     1
 10
0.0
 20
0.0
 30
0.0
 70
   128
  0
VERTEX
  8
SCREEN
  6
DCAD_SOLID
 62
    16
 48
2.0
  5
43A
 10
3.365408
 20
0.029224
 30
0.0
 40
0.0
 41
0.0
  0
VERTEX
  8
SCREEN
  6
DCAD_SOLID
 62
    16
 48
2.0
  5
43B
 10
3.350445
 20
-0.008376
 30
0.0
 40
0.0
 41
0.0
  0
SEQEND
  8
0
  5
43C
  0
POLYLINE
  8
SCREEN
  6
DCAD_SOLID
 62
    16
 48
2.0
  5
43D
 66
     1
 10
0.0
 20
0.0
 30
0.0
 70
   128
  0
VERTEX
  8
SCREEN
  6
DCAD_SOLID
 62
    16
 48
2.0
  5
43E
 10
3.365408
 20
0.029224
 30
0.0
 40
0.0
 41
0.0
  0
VERTEX
  8
SCREEN
  6
DCAD_SOLID
 62
    16
 48
2.0
  5
43F
 10
3.380426
 20
-0.008376
 30
0.0
 40
0.0
 41
0.0
  0
SEQEND
  8
0
  5
440
  0
POLYLINE
  8
SCREEN
  6
DCAD_SOLID
 62
    16
 48
2.0
  5
441
 66
     1
 10
0.0
 20
0.0
 30
0.0
 70
   128
  0
VERTEX
  8
SCREEN
  6
DCAD_SOLID
 62
    16
 48
2.0
  5
442
 10
3.356063
 20
0.004157
 30
0.0
 40
0.0
 41
0.0
  0
VERTEX
  8
SCREEN
  6
DCAD_SOLID
 62
    16
 48
2.0
  5
443
 10
3.374808
 20
0.004157
 30
0.0
 40
0.0
 41
0.0
  0
SEQEND
  8
0
  5
444
  0
POLYLINE
  8
SCREEN
  6
DCAD_SOLID
 62
    16
 48
2.0
  5
445
 66
     1
 10
0.0
 20
0.0
 30
0.0
 70
   129
  0
VERTEX
  8
SCREEN
  6
DCAD_SOLID
 62
    16
 48
2.0
  5
446
 10
3.393551
 20
-0.004768
 30
0.0
 40
0.0
 41
0.0
  0
VERTEX
  8
SCREEN
  6
DCAD_SOLID
 62
    16
 48
2.0
  5
447
 10
3.39166
 20
-0.006573
 30
0.0
 40
0.0
 41
0.0
  0
VERTEX
  8
SCREEN
  6
DCAD_SOLID
 62
    16
 48
2.0
  5
448
 10
3.393551
 20
-0.008376
 30
0.0
 40
0.0
 41
0.0
  0
VERTEX
  8
SCREEN
  6
DCAD_SOLID
 62
    16
 48
2.0
  5
449
 10
3.395441
 20
-0.006573
 30
0.0
 40
0.0
 41
0.0
  0
VERTEX
  8
SCREEN
  6
DCAD_SOLID
 62
    16
 48
2.0
  5
44A
 10
3.393551
 20
-0.004768
 30
0.0
 40
0.0
 41
0.0
  0
SEQEND
  8
0
  5
44B
  0
POLYLINE
  8
SCREEN
  6
DCAD_SOLID
 62
    16
 48
2.0
  5
44C
 66
     1
 10
0.0
 20
0.0
 30
0.0
 70
   128
  0
VERTEX
  8
SCREEN
  6
DCAD_SOLID
 62
    16
 48
2.0
  5
44D
 10
3.189996
 20
0.931405
 30
0.0
 40
0.0
 41
0.0
  0
VERTEX
  8
SCREEN
  6
DCAD_SOLID
 62
    16
 48
2.0
  5
44E
 10
3.189996
 20
0.875067
 30
0.0
 40
0.0
 41
0.0
  0
SEQEND
  8
0
  5
44F
  0
POLYLINE
  8
SCREEN
  6
DCAD_SOLID
 62
    16
 48
2.0
  5
450
 66
     1
 10
0.0
 20
0.0
 30
0.0
 70
   128
  0
VERTEX
  8
SCREEN
  6
DCAD_SOLID
 62
    16
 48
2.0
  5
451
 10
3.189667
 20
0.928372
 30
0.0
 40
0.0
 41
0.0
  0
VERTEX
  8
SCREEN
  6
DCAD_SOLID
 62
    16
 48
2.0
  5
452
 10
3.209398
 20
0.928371
 30
0.0
 40
0.0
 41
0.0
  0
VERTEX
  8
SCREEN
  6
DCAD_SOLID
 62
    16
 48
2.0
  5
453
 10
3.215951
 20
0.923842
 30
0.0
 40
0.0
 41
0.0
  0
VERTEX
  8
SCREEN
  6
DCAD_SOLID
 62
    16
 48
2.0
  5
454
 10
3.218158
 20
0.919443
 30
0.0
 40
0.0
 41
0.0
  0
VERTEX
  8
SCREEN
  6
DCAD_SOLID
 62
    16
 48
2.0
  5
455
 10
3.220304
 20
0.910384
 30
0.0
 40
0.0
 41
0.0
  0
VERTEX
  8
SCREEN
  6
DCAD_SOLID
 62
    16
 48
2.0
  5
456
 10
3.220304
 20
0.896927
 30
0.0
 40
0.0
 41
0.0
  0
VERTEX
  8
SCREEN
  6
DCAD_SOLID
 62
    16
 48
2.0
  5
457
 10
3.218158
 20
0.888003
 30
0.0
 40
0.0
 41
0.0
  0
VERTEX
  8
SCREEN
  6
DCAD_SOLID
 62
    16
 48
2.0
  5
458
 10
3.215951
 20
0.883475
 30
0.0
 40
0.0
 41
0.0
  0
VERTEX
  8
SCREEN
  6
DCAD_SOLID
 62
    16
 48
2.0
  5
459
 10
3.209398
 20
0.878942
 30
0.0
 40
0.0
 41
0.0
  0
VERTEX
  8
SCREEN
  6
DCAD_SOLID
 62
    16
 48
2.0
  5
45A
 10
3.189667
 20
0.878942
 30
0.0
 40
0.0
 41
0.0
  0
SEQEND
  8
0
  5
45B
  0
POLYLINE
  8
SCREEN
  6
DCAD_SOLID
 62
    16
 48
2.0
  5
45C
 66
     1
 10
0.0
 20
0.0
 30
0.0
 70
   128
  0
VERTEX
  8
SCREEN
  6
DCAD_SOLID
 62
    16
 48
2.0
  5
45D
 10
3.234517
 20
0.929675
 30
0.0
 40
0.0
 41
0.0
  0
VERTEX
  8
SCREEN
  6
DCAD_SOLID
 62
    16
 48
2.0
  5
45E
 10
3.234517
 20
0.873337
 30
0.0
 40
0.0
 41
0.0
  0
SEQEND
  8
0
  5
45F
  0
POLYLINE
  8
SCREEN
  6
DCAD_SOLID
 62
    16
 48
2.0
  5
460
 66
     1
 10
0.0
 20
0.0
 30
0.0
 70
   128
  0
VERTEX
  8
SCREEN
  6
DCAD_SOLID
 62
    16
 48
2.0
  5
461
 10
3.234517
 20
0.929675
 30
0.0
 40
0.0
 41
0.0
  0
VERTEX
  8
SCREEN
  6
DCAD_SOLID
 62
    16
 48
2.0
  5
462
 10
3.253866
 20
0.929675
 30
0.0
 40
0.0
 41
0.0
  0
VERTEX
  8
SCREEN
  6
DCAD_SOLID
 62
    16
 48
2.0
  5
463
 10
3.260375
 20
0.926969
 30
0.0
 40
0.0
 41
0.0
  0
VERTEX
  8
SCREEN
  6
DCAD_SOLID
 62
    16
 48
2.0
  5
464
 10
3.262486
 20
0.924341
 30
0.0
 40
0.0
 41
0.0
  0
VERTEX
  8
SCREEN
  6
DCAD_SOLID
 62
    16
 48
2.0
  5
465
 10
3.264657
 20
0.91893
 30
0.0
 40
0.0
 41
0.0
  0
VERTEX
  8
SCREEN
  6
DCAD_SOLID
 62
    16
 48
2.0
  5
466
 10
3.264657
 20
0.913606
 30
0.0
 40
0.0
 41
0.0
  0
VERTEX
  8
SCREEN
  6
DCAD_SOLID
 62
    16
 48
2.0
  5
467
 10
3.262486
 20
0.908191
 30
0.0
 40
0.0
 41
0.0
  0
VERTEX
  8
SCREEN
  6
DCAD_SOLID
 62
    16
 48
2.0
  5
468
 10
3.260375
 20
0.905561
 30
0.0
 40
0.0
 41
0.0
  0
VERTEX
  8
SCREEN
  6
DCAD_SOLID
 62
    16
 48
2.0
  5
469
 10
3.253866
 20
0.902856
 30
0.0
 40
0.0
 41
0.0
  0
VERTEX
  8
SCREEN
  6
DCAD_SOLID
 62
    16
 48
2.0
  5
46A
 10
3.234517
 20
0.902856
 30
0.0
 40
0.0
 41
0.0
  0
SEQEND
  8
0
  5
46B
  0
POLYLINE
  8
SCREEN
  6
DCAD_SOLID
 62
    16
 48
2.0
  5
46C
 66
     1
 10
0.0
 20
0.0
 30
0.0
 70
   128
  0
VERTEX
  8
SCREEN
  6
DCAD_SOLID
 62
    16
 48
2.0
  5
46D
 10
3.249587
 20
0.902856
 30
0.0
 40
0.0
 41
0.0
  0
VERTEX
  8
SCREEN
  6
DCAD_SOLID
 62
    16
 48
2.0
  5
46E
 10
3.264657
 20
0.873337
 30
0.0
 40
0.0
 41
0.0
  0
SEQEND
  8
0
  5
46F
  0
POLYLINE
  8
SCREEN
  6
DCAD_SOLID
 62
    16
 48
2.0
  5
470
 66
     1
 10
0.0
 20
0.0
 30
0.0
 70
   128
  0
VERTEX
  8
SCREEN
  6
DCAD_SOLID
 62
    16
 48
2.0
  5
471
 10
2.953325
 20
0.926811
 30
0.0
 40
0.0
 41
0.0
  0
VERTEX
  8
SCREEN
  6
DCAD_SOLID
 62
    16
 48
2.0
  5
472
 10
2.966877
 20
0.904522
 30
0.0
 40
0.0
 41
0.0
  0
VERTEX
  8
SCREEN
  6
DCAD_SOLID
 62
    16
 48
2.0
  5
473
 10
2.966057
 20
0.876655
 30
0.0
 40
0.0
 41
0.0
  0
SEQEND
  8
0
  5
474
  0
POLYLINE
  8
SCREEN
  6
DCAD_SOLID
 62
    16
 48
2.0
  5
475
 66
     1
 10
0.0
 20
0.0
 30
0.0
 70
   128
  0
VERTEX
  8
SCREEN
  6
DCAD_SOLID
 62
    16
 48
2.0
  5
476
 10
2.986658
 20
0.926811
 30
0.0
 40
0.0
 41
0.0
  0
VERTEX
  8
SCREEN
  6
DCAD_SOLID
 62
    16
 48
2.0
  5
477
 10
2.969335
 20
0.902883
 30
0.0
 40
0.0
 41
0.0
  0
SEQEND
  8
0
  5
478
  0
POLYLINE
  8
SCREEN
  6
DCAD_SOLID
 62
    16
 48
2.0
  5
479
 66
     1
 10
0.0
 20
0.0
 30
0.0
 70
   128
  0
VERTEX
  8
SCREEN
  6
DCAD_SOLID
 62
    16
 48
2.0
  5
47A
 10
3.00241
 20
0.925884
 30
0.0
 40
0.0
 41
0.0
  0
VERTEX
  8
SCREEN
  6
DCAD_SOLID
 62
    16
 48
2.0
  5
47B
 10
3.00241
 20
0.875885
 30
0.0
 40
0.0
 41
0.0
  0
SEQEND
  8
0
  5
47C
  0
POLYLINE
  8
SCREEN
  6
DCAD_SOLID
 62
    16
 48
2.0
  5
47D
 66
     1
 10
0.0
 20
0.0
 30
0.0
 70
   128
  0
VERTEX
  8
SCREEN
  6
DCAD_SOLID
 62
    16
 48
2.0
  5
47E
 10
3.00241
 20
0.925884
 30
0.0
 40
0.0
 41
0.0
  0
VERTEX
  8
SCREEN
  6
DCAD_SOLID
 62
    16
 48
2.0
  5
47F
 10
3.021456
 20
0.875885
 30
0.0
 40
0.0
 41
0.0
  0
SEQEND
  8
0
  5
480
  0
POLYLINE
  8
SCREEN
  6
DCAD_SOLID
 62
    16
 48
2.0
  5
481
 66
     1
 10
0.0
 20
0.0
 30
0.0
 70
   128
  0
VERTEX
  8
SCREEN
  6
DCAD_SOLID
 62
    16
 48
2.0
  5
482
 10
3.040503
 20
0.925884
 30
0.0
 40
0.0
 41
0.0
  0
VERTEX
  8
SCREEN
  6
DCAD_SOLID
 62
    16
 48
2.0
  5
483
 10
3.021456
 20
0.875885
 30
0.0
 40
0.0
 41
0.0
  0
SEQEND
  8
0
  5
484
  0
POLYLINE
  8
SCREEN
  6
DCAD_SOLID
 62
    16
 48
2.0
  5
485
 66
     1
 10
0.0
 20
0.0
 30
0.0
 70
   128
  0
VERTEX
  8
SCREEN
  6
DCAD_SOLID
 62
    16
 48
2.0
  5
486
 10
3.040503
 20
0.925884
 30
0.0
 40
0.0
 41
0.0
  0
VERTEX
  8
SCREEN
  6
DCAD_SOLID
 62
    16
 48
2.0
  5
487
 10
3.040503
 20
0.875885
 30
0.0
 40
0.0
 41
0.0
  0
SEQEND
  8
0
  5
488
  0
POLYLINE
  8
SCREEN
  6
DCAD_SOLID
 62
    16
 48
2.0
  5
489
 66
     1
 10
0.0
 20
0.0
 30
0.0
 70
   128
  0
VERTEX
  8
SCREEN
  6
DCAD_SOLID
 62
    16
 48
2.0
  5
48A
 10
3.065137
 20
0.906375
 30
0.0
 40
0.0
 41
0.0
  0
VERTEX
  8
SCREEN
  6
DCAD_SOLID
 62
    16
 48
2.0
  5
48B
 10
3.107993
 20
0.906375
 30
0.0
 40
0.0
 41
0.0
  0
SEQEND
  8
0
  5
48C
  0
POLYLINE
  8
SCREEN
  6
DCAD_SOLID
 62
    16
 48
2.0
  5
48D
 66
     1
 10
0.0
 20
0.0
 30
0.0
 70
   129
  0
VERTEX
  8
SCREEN
  6
DCAD_SOLID
 62
    16
 48
2.0
  5
48E
 10
3.039782
 20
0.683217
 30
0.0
 40
0.0
 41
0.0
  0
VERTEX
  8
SCREEN
  6
DCAD_SOLID
 62
    16
 48
2.0
  5
48F
 10
3.047157
 20
0.688568
 30
0.0
 40
0.0
 41
0.0
  0
VERTEX
  8
SCREEN
  6
DCAD_SOLID
 62
    16
 48
2.0
  5
490
 10
3.05349
 20
0.695118
 30
0.0
 40
0.0
 41
0.0
  0
VERTEX
  8
SCREEN
  6
DCAD_SOLID
 62
    16
 48
2.0
  5
491
 10
3.05859
 20
0.702669
 30
0.0
 40
0.0
 41
0.0
  0
VERTEX
  8
SCREEN
  6
DCAD_SOLID
 62
    16
 48
2.0
  5
492
 10
3.062302
 20
0.71099
 30
0.0
 40
0.0
 41
0.0
  0
VERTEX
  8
SCREEN
  6
DCAD_SOLID
 62
    16
 48
2.0
  5
493
 10
3.064512
 20
0.71983
 30
0.0
 40
0.0
 41
0.0
  0
VERTEX
  8
SCREEN
  6
DCAD_SOLID
 62
    16
 48
2.0
  5
494
 10
3.065153
 20
0.728919
 30
0.0
 40
0.0
 41
0.0
  0
VERTEX
  8
SCREEN
  6
DCAD_SOLID
 62
    16
 48
2.0
  5
495
 10
3.064207
 20
0.737981
 30
0.0
 40
0.0
 41
0.0
  0
VERTEX
  8
SCREEN
  6
DCAD_SOLID
 62
    16
 48
2.0
  5
496
 10
3.0617
 20
0.746741
 30
0.0
 40
0.0
 41
0.0
  0
VERTEX
  8
SCREEN
  6
DCAD_SOLID
 62
    16
 48
2.0
  5
497
 10
3.057711
 20
0.754933
 30
0.0
 40
0.0
 41
0.0
  0
VERTEX
  8
SCREEN
  6
DCAD_SOLID
 62
    16
 48
2.0
  5
498
 10
3.05236
 20
0.762308
 30
0.0
 40
0.0
 41
0.0
  0
VERTEX
  8
SCREEN
  6
DCAD_SOLID
 62
    16
 48
2.0
  5
499
 10
3.04581
 20
0.768642
 30
0.0
 40
0.0
 41
0.0
  0
VERTEX
  8
SCREEN
  6
DCAD_SOLID
 62
    16
 48
2.0
  5
49A
 10
3.038259
 20
0.773742
 30
0.0
 40
0.0
 41
0.0
  0
VERTEX
  8
SCREEN
  6
DCAD_SOLID
 62
    16
 48
2.0
  5
49B
 10
3.029938
 20
0.777453
 30
0.0
 40
0.0
 41
0.0
  0
VERTEX
  8
SCREEN
  6
DCAD_SOLID
 62
    16
 48
2.0
  5
49C
 10
3.021099
 20
0.779663
 30
0.0
 40
0.0
 41
0.0
  0
VERTEX
  8
SCREEN
  6
DCAD_SOLID
 62
    16
 48
2.0
  5
49D
 10
3.012009
 20
0.780304
 30
0.0
 40
0.0
 41
0.0
  0
VERTEX
  8
SCREEN
  6
DCAD_SOLID
 62
    16
 48
2.0
  5
49E
 10
3.002947
 20
0.779357
 30
0.0
 40
0.0
 41
0.0
  0
VERTEX
  8
SCREEN
  6
DCAD_SOLID
 62
    16
 48
2.0
  5
49F
 10
2.994187
 20
0.776852
 30
0.0
 40
0.0
 41
0.0
  0
VERTEX
  8
SCREEN
  6
DCAD_SOLID
 62
    16
 48
2.0
  5
4A0
 10
2.985995
 20
0.772862
 30
0.0
 40
0.0
 41
0.0
  0
VERTEX
  8
SCREEN
  6
DCAD_SOLID
 62
    16
 48
2.0
  5
4A1
 10
2.97862
 20
0.767511
 30
0.0
 40
0.0
 41
0.0
  0
VERTEX
  8
SCREEN
  6
DCAD_SOLID
 62
    16
 48
2.0
  5
4A2
 10
2.972287
 20
0.760961
 30
0.0
 40
0.0
 41
0.0
  0
VERTEX
  8
SCREEN
  6
DCAD_SOLID
 62
    16
 48
2.0
  5
4A3
 10
2.967186
 20
0.75341
 30
0.0
 40
0.0
 41
0.0
  0
VERTEX
  8
SCREEN
  6
DCAD_SOLID
 62
    16
 48
2.0
  5
4A4
 10
2.963476
 20
0.745089
 30
0.0
 40
0.0
 41
0.0
  0
VERTEX
  8
SCREEN
  6
DCAD_SOLID
 62
    16
 48
2.0
  5
4A5
 10
2.961265
 20
0.736249
 30
0.0
 40
0.0
 41
0.0
  0
VERTEX
  8
SCREEN
  6
DCAD_SOLID
 62
    16
 48
2.0
  5
4A6
 10
2.960624
 20
0.727161
 30
0.0
 40
0.0
 41
0.0
  0
VERTEX
  8
SCREEN
  6
DCAD_SOLID
 62
    16
 48
2.0
  5
4A7
 10
2.961571
 20
0.718099
 30
0.0
 40
0.0
 41
0.0
  0
VERTEX
  8
SCREEN
  6
DCAD_SOLID
 62
    16
 48
2.0
  5
4A8
 10
2.964077
 20
0.709338
 30
0.0
 40
0.0
 41
0.0
  0
VERTEX
  8
SCREEN
  6
DCAD_SOLID
 62
    16
 48
2.0
  5
4A9
 10
2.968066
 20
0.701146
 30
0.0
 40
0.0
 41
0.0
  0
VERTEX
  8
SCREEN
  6
DCAD_SOLID
 62
    16
 48
2.0
  5
4AA
 10
2.973417
 20
0.693771
 30
0.0
 40
0.0
 41
0.0
  0
VERTEX
  8
SCREEN
  6
DCAD_SOLID
 62
    16
 48
2.0
  5
4AB
 10
2.979967
 20
0.687438
 30
0.0
 40
0.0
 41
0.0
  0
VERTEX
  8
SCREEN
  6
DCAD_SOLID
 62
    16
 48
2.0
  5
4AC
 10
2.987518
 20
0.682338
 30
0.0
 40
0.0
 41
0.0
  0
VERTEX
  8
SCREEN
  6
DCAD_SOLID
 62
    16
 48
2.0
  5
4AD
 10
2.99584
 20
0.678626
 30
0.0
 40
0.0
 41
0.0
  0
VERTEX
  8
SCREEN
  6
DCAD_SOLID
 62
    16
 48
2.0
  5
4AE
 10
3.004679
 20
0.676416
 30
0.0
 40
0.0
 41
0.0
  0
VERTEX
  8
SCREEN
  6
DCAD_SOLID
 62
    16
 48
2.0
  5
4AF
 10
3.013768
 20
0.675776
 30
0.0
 40
0.0
 41
0.0
  0
VERTEX
  8
SCREEN
  6
DCAD_SOLID
 62
    16
 48
2.0
  5
4B0
 10
3.02283
 20
0.676722
 30
0.0
 40
0.0
 41
0.0
  0
VERTEX
  8
SCREEN
  6
DCAD_SOLID
 62
    16
 48
2.0
  5
4B1
 10
3.03159
 20
0.679228
 30
0.0
 40
0.0
 41
0.0
  0
VERTEX
  8
SCREEN
  6
DCAD_SOLID
 62
    16
 48
2.0
  5
4B2
 10
3.039782
 20
0.683217
 30
0.0
 40
0.0
 41
0.0
  0
VERTEX
  8
SCREEN
  6
DCAD_SOLID
 62
    16
 48
2.0
  5
4B3
 10
3.039782
 20
0.683217
 30
0.0
 40
0.0
 41
0.0
  0
SEQEND
  8
0
  5
4B4
  0
POLYLINE
  8
SCREEN
  6
DCAD_SOLID
 62
    16
 48
2.0
  5
4B5
 66
     1
 10
0.0
 20
0.0
 30
0.0
 70
   128
  0
VERTEX
  8
SCREEN
  6
DCAD_SOLID
 62
    16
 48
2.0
  5
4B6
 10
3.027057
 20
0.742105
 30
0.0
 40
0.0
 41
0.0
  0
VERTEX
  8
SCREEN
  6
DCAD_SOLID
 62
    16
 48
2.0
  5
4B7
 10
3.024678
 20
0.746866
 30
0.0
 40
0.0
 41
0.0
  0
VERTEX
  8
SCREEN
  6
DCAD_SOLID
 62
    16
 48
2.0
  5
4B8
 10
3.019914
 20
0.751629
 30
0.0
 40
0.0
 41
0.0
  0
VERTEX
  8
SCREEN
  6
DCAD_SOLID
 62
    16
 48
2.0
  5
4B9
 10
3.015153
 20
0.754008
 30
0.0
 40
0.0
 41
0.0
  0
VERTEX
  8
SCREEN
  6
DCAD_SOLID
 62
    16
 48
2.0
  5
4BA
 10
3.005629
 20
0.754008
 30
0.0
 40
0.0
 41
0.0
  0
VERTEX
  8
SCREEN
  6
DCAD_SOLID
 62
    16
 48
2.0
  5
4BB
 10
3.000867
 20
0.751629
 30
0.0
 40
0.0
 41
0.0
  0
VERTEX
  8
SCREEN
  6
DCAD_SOLID
 62
    16
 48
2.0
  5
4BC
 10
2.996107
 20
0.746866
 30
0.0
 40
0.0
 41
0.0
  0
VERTEX
  8
SCREEN
  6
DCAD_SOLID
 62
    16
 48
2.0
  5
4BD
 10
2.993724
 20
0.742105
 30
0.0
 40
0.0
 41
0.0
  0
VERTEX
  8
SCREEN
  6
DCAD_SOLID
 62
    16
 48
2.0
  5
4BE
 10
2.991343
 20
0.734962
 30
0.0
 40
0.0
 41
0.0
  0
VERTEX
  8
SCREEN
  6
DCAD_SOLID
 62
    16
 48
2.0
  5
4BF
 10
2.991343
 20
0.723058
 30
0.0
 40
0.0
 41
0.0
  0
VERTEX
  8
SCREEN
  6
DCAD_SOLID
 62
    16
 48
2.0
  5
4C0
 10
2.993724
 20
0.715915
 30
0.0
 40
0.0
 41
0.0
  0
VERTEX
  8
SCREEN
  6
DCAD_SOLID
 62
    16
 48
2.0
  5
4C1
 10
2.996107
 20
0.711151
 30
0.0
 40
0.0
 41
0.0
  0
VERTEX
  8
SCREEN
  6
DCAD_SOLID
 62
    16
 48
2.0
  5
4C2
 10
3.000867
 20
0.70639
 30
0.0
 40
0.0
 41
0.0
  0
VERTEX
  8
SCREEN
  6
DCAD_SOLID
 62
    16
 48
2.0
  5
4C3
 10
3.005629
 20
0.704008
 30
0.0
 40
0.0
 41
0.0
  0
VERTEX
  8
SCREEN
  6
DCAD_SOLID
 62
    16
 48
2.0
  5
4C4
 10
3.015153
 20
0.704008
 30
0.0
 40
0.0
 41
0.0
  0
VERTEX
  8
SCREEN
  6
DCAD_SOLID
 62
    16
 48
2.0
  5
4C5
 10
3.019914
 20
0.70639
 30
0.0
 40
0.0
 41
0.0
  0
VERTEX
  8
SCREEN
  6
DCAD_SOLID
 62
    16
 48
2.0
  5
4C6
 10
3.024678
 20
0.711151
 30
0.0
 40
0.0
 41
0.0
  0
VERTEX
  8
SCREEN
  6
DCAD_SOLID
 62
    16
 48
2.0
  5
4C7
 10
3.027057
 20
0.715915
 30
0.0
 40
0.0
 41
0.0
  0
SEQEND
  8
0
  5
4C8
  0
POLYLINE
  8
SCREEN
  6
DCAD_SOLID
 62
    16
 48
2.0
  5
4C9
 66
     1
 10
0.0
 20
0.0
 30
0.0
 70
   128
  0
VERTEX
  8
SCREEN
  6
DCAD_SOLID
 62
    16
 48
2.0
  5
4CA
 10
2.907183
 20
0.239548
 30
0.0
 40
0.0
 41
0.0
  0
VERTEX
  8
SCREEN
  6
DCAD_SOLID
 62
    16
 48
2.0
  5
4CB
 10
2.918593
 20
0.293614
 30
0.0
 40
0.0
 41
0.0
  0
SEQEND
  8
0
  5
4CC
  0
POLYLINE
  8
SCREEN
  6
DCAD_SOLID
 62
    16
 48
2.0
  5
4CD
 66
     1
 10
0.0
 20
0.0
 30
0.0
 70
   128
  0
VERTEX
  8
SCREEN
  6
DCAD_SOLID
 62
    16
 48
2.0
  5
4CE
 10
2.916588
 20
0.293614
 30
0.0
 40
0.0
 41
0.0
  0
VERTEX
  8
SCREEN
  6
DCAD_SOLID
 62
    16
 48
2.0
  5
4CF
 10
2.905179
 20
0.23955
 30
0.0
 40
0.0
 41
0.0
  0
SEQEND
  8
0
  5
4D0
  0
POLYLINE
  8
SCREEN
  6
DCAD_SOLID
 62
    16
 48
2.0
  5
4D1
 66
     1
 10
0.0
 20
0.0
 30
0.0
 70
   128
  0
VERTEX
  8
SCREEN
  6
DCAD_SOLID
 62
    16
 48
2.0
  5
4D2
 10
2.905219
 20
0.293623
 30
0.0
 40
0.0
 41
0.0
  0
VERTEX
  8
SCREEN
  6
DCAD_SOLID
 62
    16
 48
2.0
  5
4D3
 10
2.899518
 20
0.278307
 30
0.0
 40
0.0
 41
0.0
  0
VERTEX
  8
SCREEN
  6
DCAD_SOLID
 62
    16
 48
2.0
  5
4D4
 10
2.903208
 20
0.293624
 30
0.0
 40
0.0
 41
0.0
  0
VERTEX
  8
SCREEN
  6
DCAD_SOLID
 62
    16
 48
2.0
  5
4D5
 10
2.931973
 20
0.293604
 30
0.0
 40
0.0
 41
0.0
  0
VERTEX
  8
SCREEN
  6
DCAD_SOLID
 62
    16
 48
2.0
  5
4D6
 10
2.929958
 20
0.278285
 30
0.0
 40
0.0
 41
0.0
  0
VERTEX
  8
SCREEN
  6
DCAD_SOLID
 62
    16
 48
2.0
  5
4D7
 10
2.929968
 20
0.293605
 30
0.0
 40
0.0
 41
0.0
  0
SEQEND
  8
0
  5
4D8
  0
POLYLINE
  8
SCREEN
  6
DCAD_SOLID
 62
    16
 48
2.0
  5
4D9
 66
     1
 10
0.0
 20
0.0
 30
0.0
 70
   128
  0
VERTEX
  8
SCREEN
  6
DCAD_SOLID
 62
    16
 48
2.0
  5
4DA
 10
2.955389
 20
0.293586
 30
0.0
 40
0.0
 41
0.0
  0
VERTEX
  8
SCREEN
  6
DCAD_SOLID
 62
    16
 48
2.0
  5
4DB
 10
2.943974
 20
0.239521
 30
0.0
 40
0.0
 41
0.0
  0
SEQEND
  8
0
  5
4DC
  0
POLYLINE
  8
SCREEN
  6
DCAD_SOLID
 62
    16
 48
2.0
  5
4DD
 66
     1
 10
0.0
 20
0.0
 30
0.0
 70
   128
  0
VERTEX
  8
SCREEN
  6
DCAD_SOLID
 62
    16
 48
2.0
  5
4DE
 10
2.941972
 20
0.239523
 30
0.0
 40
0.0
 41
0.0
  0
VERTEX
  8
SCREEN
  6
DCAD_SOLID
 62
    16
 48
2.0
  5
4DF
 10
2.953387
 20
0.293588
 30
0.0
 40
0.0
 41
0.0
  0
SEQEND
  8
0
  5
4E0
  0
POLYLINE
  8
SCREEN
  6
DCAD_SOLID
 62
    16
 48
2.0
  5
4E1
 66
     1
 10
0.0
 20
0.0
 30
0.0
 70
   128
  0
VERTEX
  8
SCREEN
  6
DCAD_SOLID
 62
    16
 48
2.0
  5
4E2
 10
2.955389
 20
0.293586
 30
0.0
 40
0.0
 41
0.0
  0
VERTEX
  8
SCREEN
  6
DCAD_SOLID
 62
    16
 48
2.0
  5
4E3
 10
2.947697
 20
0.293592
 30
0.0
 40
0.0
 41
0.0
  0
SEQEND
  8
0
  5
4E4
  0
POLYLINE
  8
SCREEN
  6
DCAD_SOLID
 62
    16
 48
2.0
  5
4E5
 66
     1
 10
0.0
 20
0.0
 30
0.0
 70
   128
  0
VERTEX
  8
SCREEN
  6
DCAD_SOLID
 62
    16
 48
2.0
  5
4E6
 10
2.96307
 20
0.27556
 30
0.0
 40
0.0
 41
0.0
  0
VERTEX
  8
SCREEN
  6
DCAD_SOLID
 62
    16
 48
2.0
  5
4E7
 10
2.966749
 20
0.270602
 30
0.0
 40
0.0
 41
0.0
  0
VERTEX
  8
SCREEN
  6
DCAD_SOLID
 62
    16
 48
2.0
  5
4E8
 10
2.966744
 20
0.265193
 30
0.0
 40
0.0
 41
0.0
  0
VERTEX
  8
SCREEN
  6
DCAD_SOLID
 62
    16
 48
2.0
  5
4E9
 10
2.963051
 20
0.249864
 30
0.0
 40
0.0
 41
0.0
  0
VERTEX
  8
SCREEN
  6
DCAD_SOLID
 62
    16
 48
2.0
  5
4EA
 10
2.963047
 20
0.242204
 30
0.0
 40
0.0
 41
0.0
  0
VERTEX
  8
SCREEN
  6
DCAD_SOLID
 62
    16
 48
2.0
  5
4EB
 10
2.965053
 20
0.239506
 30
0.0
 40
0.0
 41
0.0
  0
VERTEX
  8
SCREEN
  6
DCAD_SOLID
 62
    16
 48
2.0
  5
4EC
 10
2.970738
 20
0.239502
 30
0.0
 40
0.0
 41
0.0
  0
VERTEX
  8
SCREEN
  6
DCAD_SOLID
 62
    16
 48
2.0
  5
4ED
 10
2.974421
 20
0.244446
 30
0.0
 40
0.0
 41
0.0
  0
VERTEX
  8
SCREEN
  6
DCAD_SOLID
 62
    16
 48
2.0
  5
4EE
 10
2.976434
 20
0.249854
 30
0.0
 40
0.0
 41
0.0
  0
SEQEND
  8
0
  5
4EF
  0
POLYLINE
  8
SCREEN
  6
DCAD_SOLID
 62
    16
 48
2.0
  5
4F0
 66
     1
 10
0.0
 20
0.0
 30
0.0
 70
   128
  0
VERTEX
  8
SCREEN
  6
DCAD_SOLID
 62
    16
 48
2.0
  5
4F1
 10
2.966726
 20
0.239505
 30
0.0
 40
0.0
 41
0.0
  0
VERTEX
  8
SCREEN
  6
DCAD_SOLID
 62
    16
 48
2.0
  5
4F2
 10
2.965055
 20
0.242203
 30
0.0
 40
0.0
 41
0.0
  0
VERTEX
  8
SCREEN
  6
DCAD_SOLID
 62
    16
 48
2.0
  5
4F3
 10
2.96506
 20
0.249863
 30
0.0
 40
0.0
 41
0.0
  0
VERTEX
  8
SCREEN
  6
DCAD_SOLID
 62
    16
 48
2.0
  5
4F4
 10
2.96875
 20
0.265191
 30
0.0
 40
0.0
 41
0.0
  0
VERTEX
  8
SCREEN
  6
DCAD_SOLID
 62
    16
 48
2.0
  5
4F5
 10
2.968752
 20
0.2706
 30
0.0
 40
0.0
 41
0.0
  0
VERTEX
  8
SCREEN
  6
DCAD_SOLID
 62
    16
 48
2.0
  5
4F6
 10
2.966751
 20
0.272844
 30
0.0
 40
0.0
 41
0.0
  0
VERTEX
  8
SCREEN
  6
DCAD_SOLID
 62
    16
 48
2.0
  5
4F7
 10
2.96307
 20
0.27556
 30
0.0
 40
0.0
 41
0.0
  0
VERTEX
  8
SCREEN
  6
DCAD_SOLID
 62
    16
 48
2.0
  5
4F8
 10
2.959058
 20
0.275562
 30
0.0
 40
0.0
 41
0.0
  0
VERTEX
  8
SCREEN
  6
DCAD_SOLID
 62
    16
 48
2.0
  5
4F9
 10
2.955374
 20
0.272853
 30
0.0
 40
0.0
 41
0.0
  0
VERTEX
  8
SCREEN
  6
DCAD_SOLID
 62
    16
 48
2.0
  5
4FA
 10
2.951694
 20
0.267908
 30
0.0
 40
0.0
 41
0.0
  0
VERTEX
  8
SCREEN
  6
DCAD_SOLID
 62
    16
 48
2.0
  5
4FB
 10
2.947671
 20
0.257535
 30
0.0
 40
0.0
 41
0.0
  0
SEQEND
  8
0
  5
4FC
  0
POLYLINE
  8
SCREEN
  6
DCAD_SOLID
 62
    16
 48
2.0
  5
4FD
 66
     1
 10
0.0
 20
0.0
 30
0.0
 70
   128
  0
VERTEX
  8
SCREEN
  6
DCAD_SOLID
 62
    16
 48
2.0
  5
4FE
 10
2.997855
 20
0.275535
 30
0.0
 40
0.0
 41
0.0
  0
VERTEX
  8
SCREEN
  6
DCAD_SOLID
 62
    16
 48
2.0
  5
4FF
 10
2.99384
 20
0.272825
 30
0.0
 40
0.0
 41
0.0
  0
VERTEX
  8
SCREEN
  6
DCAD_SOLID
 62
    16
 48
2.0
  5
500
 10
2.990157
 20
0.265176
 30
0.0
 40
0.0
 41
0.0
  0
VERTEX
  8
SCREEN
  6
DCAD_SOLID
 62
    16
 48
2.0
  5
501
 10
2.988142
 20
0.257506
 30
0.0
 40
0.0
 41
0.0
  0
VERTEX
  8
SCREEN
  6
DCAD_SOLID
 62
    16
 48
2.0
  5
502
 10
2.988136
 20
0.247137
 30
0.0
 40
0.0
 41
0.0
  0
VERTEX
  8
SCREEN
  6
DCAD_SOLID
 62
    16
 48
2.0
  5
503
 10
2.99014
 20
0.242185
 30
0.0
 40
0.0
 41
0.0
  0
SEQEND
  8
0
  5
504
  0
POLYLINE
  8
SCREEN
  6
DCAD_SOLID
 62
    16
 48
2.0
  5
505
 66
     1
 10
0.0
 20
0.0
 30
0.0
 70
   128
  0
VERTEX
  8
SCREEN
  6
DCAD_SOLID
 62
    16
 48
2.0
  5
506
 10
2.988139
 20
0.252546
 30
0.0
 40
0.0
 41
0.0
  0
VERTEX
  8
SCREEN
  6
DCAD_SOLID
 62
    16
 48
2.0
  5
507
 10
2.995838
 20
0.254795
 30
0.0
 40
0.0
 41
0.0
  0
VERTEX
  8
SCREEN
  6
DCAD_SOLID
 62
    16
 48
2.0
  5
508
 10
3.001526
 20
0.257496
 30
0.0
 40
0.0
 41
0.0
  0
VERTEX
  8
SCREEN
  6
DCAD_SOLID
 62
    16
 48
2.0
  5
509
 10
3.007214
 20
0.262454
 30
0.0
 40
0.0
 41
0.0
  0
VERTEX
  8
SCREEN
  6
DCAD_SOLID
 62
    16
 48
2.0
  5
50A
 10
3.009225
 20
0.267866
 30
0.0
 40
0.0
 41
0.0
  0
VERTEX
  8
SCREEN
  6
DCAD_SOLID
 62
    16
 48
2.0
  5
50B
 10
3.007222
 20
0.272816
 30
0.0
 40
0.0
 41
0.0
  0
VERTEX
  8
SCREEN
  6
DCAD_SOLID
 62
    16
 48
2.0
  5
50C
 10
3.003544
 20
0.275531
 30
0.0
 40
0.0
 41
0.0
  0
VERTEX
  8
SCREEN
  6
DCAD_SOLID
 62
    16
 48
2.0
  5
50D
 10
2.997855
 20
0.275535
 30
0.0
 40
0.0
 41
0.0
  0
VERTEX
  8
SCREEN
  6
DCAD_SOLID
 62
    16
 48
2.0
  5
50E
 10
2.992169
 20
0.272826
 30
0.0
 40
0.0
 41
0.0
  0
VERTEX
  8
SCREEN
  6
DCAD_SOLID
 62
    16
 48
2.0
  5
50F
 10
2.988148
 20
0.265177
 30
0.0
 40
0.0
 41
0.0
  0
VERTEX
  8
SCREEN
  6
DCAD_SOLID
 62
    16
 48
2.0
  5
510
 10
2.986476
 20
0.257506
 30
0.0
 40
0.0
 41
0.0
  0
VERTEX
  8
SCREEN
  6
DCAD_SOLID
 62
    16
 48
2.0
  5
511
 10
2.98647
 20
0.249847
 30
0.0
 40
0.0
 41
0.0
  0
VERTEX
  8
SCREEN
  6
DCAD_SOLID
 62
    16
 48
2.0
  5
512
 10
2.988133
 20
0.244436
 30
0.0
 40
0.0
 41
0.0
  0
VERTEX
  8
SCREEN
  6
DCAD_SOLID
 62
    16
 48
2.0
  5
513
 10
2.99014
 20
0.242185
 30
0.0
 40
0.0
 41
0.0
  0
VERTEX
  8
SCREEN
  6
DCAD_SOLID
 62
    16
 48
2.0
  5
514
 10
2.993816
 20
0.239485
 30
0.0
 40
0.0
 41
0.0
  0
VERTEX
  8
SCREEN
  6
DCAD_SOLID
 62
    16
 48
2.0
  5
515
 10
2.997829
 20
0.239482
 30
0.0
 40
0.0
 41
0.0
  0
VERTEX
  8
SCREEN
  6
DCAD_SOLID
 62
    16
 48
2.0
  5
516
 10
3.00352
 20
0.242175
 30
0.0
 40
0.0
 41
0.0
  0
VERTEX
  8
SCREEN
  6
DCAD_SOLID
 62
    16
 48
2.0
  5
517
 10
3.007203
 20
0.247124
 30
0.0
 40
0.0
 41
0.0
  0
SEQEND
  8
0
  5
518
  0
POLYLINE
  8
SCREEN
  6
DCAD_SOLID
 62
    16
 48
2.0
  5
519
 66
     1
 10
0.0
 20
0.0
 30
0.0
 70
   128
  0
VERTEX
  8
SCREEN
  6
DCAD_SOLID
 62
    16
 48
2.0
  5
51A
 10
3.057357
 20
0.29486
 30
0.0
 40
0.0
 41
0.0
  0
VERTEX
  8
SCREEN
  6
DCAD_SOLID
 62
    16
 48
2.0
  5
51B
 10
3.045946
 20
0.240795
 30
0.0
 40
0.0
 41
0.0
  0
SEQEND
  8
0
  5
51C
  0
POLYLINE
  8
SCREEN
  6
DCAD_SOLID
 62
    16
 48
2.0
  5
51D
 66
     1
 10
0.0
 20
0.0
 30
0.0
 70
   128
  0
VERTEX
  8
SCREEN
  6
DCAD_SOLID
 62
    16
 48
2.0
  5
51E
 10
3.040258
 20
0.240799
 30
0.0
 40
0.0
 41
0.0
  0
VERTEX
  8
SCREEN
  6
DCAD_SOLID
 62
    16
 48
2.0
  5
51F
 10
3.051631
 20
0.240791
 30
0.0
 40
0.0
 41
0.0
  0
SEQEND
  8
0
  5
520
  0
POLYLINE
  8
SCREEN
  6
DCAD_SOLID
 62
    16
 48
2.0
  5
521
 66
     1
 10
0.0
 20
0.0
 30
0.0
 70
   128
  0
VERTEX
  8
SCREEN
  6
DCAD_SOLID
 62
    16
 48
2.0
  5
522
 10
3.070697
 20
0.240777
 30
0.0
 40
0.0
 41
0.0
  0
VERTEX
  8
SCREEN
  6
DCAD_SOLID
 62
    16
 48
2.0
  5
523
 10
3.082444
 20
0.294842
 30
0.0
 40
0.0
 41
0.0
  0
SEQEND
  8
0
  5
524
  0
POLYLINE
  8
SCREEN
  6
DCAD_SOLID
 62
    16
 48
2.0
  5
525
 66
     1
 10
0.0
 20
0.0
 30
0.0
 70
   128
  0
VERTEX
  8
SCREEN
  6
DCAD_SOLID
 62
    16
 48
2.0
  5
526
 10
3.076758
 20
0.294846
 30
0.0
 40
0.0
 41
0.0
  0
VERTEX
  8
SCREEN
  6
DCAD_SOLID
 62
    16
 48
2.0
  5
527
 10
3.088128
 20
0.294837
 30
0.0
 40
0.0
 41
0.0
  0
SEQEND
  8
0
  5
528
  0
POLYLINE
  8
SCREEN
  6
DCAD_SOLID
 62
    16
 48
2.0
  5
529
 66
     1
 10
0.0
 20
0.0
 30
0.0
 70
   128
  0
VERTEX
  8
SCREEN
  6
DCAD_SOLID
 62
    16
 48
2.0
  5
52A
 10
3.057357
 20
0.29486
 30
0.0
 40
0.0
 41
0.0
  0
VERTEX
  8
SCREEN
  6
DCAD_SOLID
 62
    16
 48
2.0
  5
52B
 10
3.070703
 20
0.248426
 30
0.0
 40
0.0
 41
0.0
  0
SEQEND
  8
0
  5
52C
  0
POLYLINE
  8
SCREEN
  6
DCAD_SOLID
 62
    16
 48
2.0
  5
52D
 66
     1
 10
0.0
 20
0.0
 30
0.0
 70
   128
  0
VERTEX
  8
SCREEN
  6
DCAD_SOLID
 62
    16
 48
2.0
  5
52E
 10
3.070697
 20
0.240777
 30
0.0
 40
0.0
 41
0.0
  0
VERTEX
  8
SCREEN
  6
DCAD_SOLID
 62
    16
 48
2.0
  5
52F
 10
3.057352
 20
0.2872
 30
0.0
 40
0.0
 41
0.0
  0
SEQEND
  8
0
  5
530
  0
POLYLINE
  8
SCREEN
  6
DCAD_SOLID
 62
    16
 48
2.0
  5
531
 66
     1
 10
0.0
 20
0.0
 30
0.0
 70
   128
  0
VERTEX
  8
SCREEN
  6
DCAD_SOLID
 62
    16
 48
2.0
  5
532
 10
3.057357
 20
0.29486
 30
0.0
 40
0.0
 41
0.0
  0
VERTEX
  8
SCREEN
  6
DCAD_SOLID
 62
    16
 48
2.0
  5
533
 10
3.051672
 20
0.294864
 30
0.0
 40
0.0
 41
0.0
  0
SEQEND
  8
0
  5
534
  0
POLYLINE
  8
SCREEN
  6
DCAD_SOLID
 62
    16
 48
2.0
  5
535
 66
     1
 10
0.0
 20
0.0
 30
0.0
 70
   128
  0
VERTEX
  8
SCREEN
  6
DCAD_SOLID
 62
    16
 48
2.0
  5
536
 10
3.109832
 20
0.240748
 30
0.0
 40
0.0
 41
0.0
  0
VERTEX
  8
SCREEN
  6
DCAD_SOLID
 62
    16
 48
2.0
  5
537
 10
3.113515
 20
0.243443
 30
0.0
 40
0.0
 41
0.0
  0
VERTEX
  8
SCREEN
  6
DCAD_SOLID
 62
    16
 48
2.0
  5
538
 10
3.117534
 20
0.2511
 30
0.0
 40
0.0
 41
0.0
  0
VERTEX
  8
SCREEN
  6
DCAD_SOLID
 62
    16
 48
2.0
  5
539
 10
3.119213
 20
0.258759
 30
0.0
 40
0.0
 41
0.0
  0
VERTEX
  8
SCREEN
  6
DCAD_SOLID
 62
    16
 48
2.0
  5
53A
 10
3.119219
 20
0.269135
 30
0.0
 40
0.0
 41
0.0
  0
VERTEX
  8
SCREEN
  6
DCAD_SOLID
 62
    16
 48
2.0
  5
53B
 10
3.11755
 20
0.274083
 30
0.0
 40
0.0
 41
0.0
  0
SEQEND
  8
0
  5
53C
  0
POLYLINE
  8
SCREEN
  6
DCAD_SOLID
 62
    16
 48
2.0
  5
53D
 66
     1
 10
0.0
 20
0.0
 30
0.0
 70
   128
  0
VERTEX
  8
SCREEN
  6
DCAD_SOLID
 62
    16
 48
2.0
  5
53E
 10
3.109858
 20
0.276801
 30
0.0
 40
0.0
 41
0.0
  0
VERTEX
  8
SCREEN
  6
DCAD_SOLID
 62
    16
 48
2.0
  5
53F
 10
3.105844
 20
0.274092
 30
0.0
 40
0.0
 41
0.0
  0
VERTEX
  8
SCREEN
  6
DCAD_SOLID
 62
    16
 48
2.0
  5
540
 10
3.102159
 20
0.266442
 30
0.0
 40
0.0
 41
0.0
  0
VERTEX
  8
SCREEN
  6
DCAD_SOLID
 62
    16
 48
2.0
  5
541
 10
3.100143
 20
0.258772
 30
0.0
 40
0.0
 41
0.0
  0
VERTEX
  8
SCREEN
  6
DCAD_SOLID
 62
    16
 48
2.0
  5
542
 10
3.100135
 20
0.248404
 30
0.0
 40
0.0
 41
0.0
  0
VERTEX
  8
SCREEN
  6
DCAD_SOLID
 62
    16
 48
2.0
  5
543
 10
3.102143
 20
0.243451
 30
0.0
 40
0.0
 41
0.0
  0
SEQEND
  8
0
  5
544
  0
POLYLINE
  8
SCREEN
  6
DCAD_SOLID
 62
    16
 48
2.0
  5
545
 66
     1
 10
0.0
 20
0.0
 30
0.0
 70
   129
  0
VERTEX
  8
SCREEN
  6
DCAD_SOLID
 62
    16
 48
2.0
  5
546
 10
3.109858
 20
0.276801
 30
0.0
 40
0.0
 41
0.0
  0
VERTEX
  8
SCREEN
  6
DCAD_SOLID
 62
    16
 48
2.0
  5
547
 10
3.104169
 20
0.274093
 30
0.0
 40
0.0
 41
0.0
  0
VERTEX
  8
SCREEN
  6
DCAD_SOLID
 62
    16
 48
2.0
  5
548
 10
3.100149
 20
0.266443
 30
0.0
 40
0.0
 41
0.0
  0
VERTEX
  8
SCREEN
  6
DCAD_SOLID
 62
    16
 48
2.0
  5
549
 10
3.098138
 20
0.258774
 30
0.0
 40
0.0
 41
0.0
  0
VERTEX
  8
SCREEN
  6
DCAD_SOLID
 62
    16
 48
2.0
  5
54A
 10
3.098133
 20
0.251114
 30
0.0
 40
0.0
 41
0.0
  0
VERTEX
  8
SCREEN
  6
DCAD_SOLID
 62
    16
 48
2.0
  5
54B
 10
3.100133
 20
0.245703
 30
0.0
 40
0.0
 41
0.0
  0
VERTEX
  8
SCREEN
  6
DCAD_SOLID
 62
    16
 48
2.0
  5
54C
 10
3.102143
 20
0.243451
 30
0.0
 40
0.0
 41
0.0
  0
VERTEX
  8
SCREEN
  6
DCAD_SOLID
 62
    16
 48
2.0
  5
54D
 10
3.105819
 20
0.240751
 30
0.0
 40
0.0
 41
0.0
  0
VERTEX
  8
SCREEN
  6
DCAD_SOLID
 62
    16
 48
2.0
  5
54E
 10
3.109832
 20
0.240748
 30
0.0
 40
0.0
 41
0.0
  0
VERTEX
  8
SCREEN
  6
DCAD_SOLID
 62
    16
 48
2.0
  5
54F
 10
3.115522
 20
0.243442
 30
0.0
 40
0.0
 41
0.0
  0
VERTEX
  8
SCREEN
  6
DCAD_SOLID
 62
    16
 48
2.0
  5
550
 10
3.119207
 20
0.251099
 30
0.0
 40
0.0
 41
0.0
  0
VERTEX
  8
SCREEN
  6
DCAD_SOLID
 62
    16
 48
2.0
  5
551
 10
3.121219
 20
0.258757
 30
0.0
 40
0.0
 41
0.0
  0
VERTEX
  8
SCREEN
  6
DCAD_SOLID
 62
    16
 48
2.0
  5
552
 10
3.121225
 20
0.266428
 30
0.0
 40
0.0
 41
0.0
  0
VERTEX
  8
SCREEN
  6
DCAD_SOLID
 62
    16
 48
2.0
  5
553
 10
3.119222
 20
0.271839
 30
0.0
 40
0.0
 41
0.0
  0
VERTEX
  8
SCREEN
  6
DCAD_SOLID
 62
    16
 48
2.0
  5
554
 10
3.11755
 20
0.274083
 30
0.0
 40
0.0
 41
0.0
  0
VERTEX
  8
SCREEN
  6
DCAD_SOLID
 62
    16
 48
2.0
  5
555
 10
3.11354
 20
0.276798
 30
0.0
 40
0.0
 41
0.0
  0
VERTEX
  8
SCREEN
  6
DCAD_SOLID
 62
    16
 48
2.0
  5
556
 10
3.109858
 20
0.276801
 30
0.0
 40
0.0
 41
0.0
  0
SEQEND
  8
0
  5
557
  0
POLYLINE
  8
SCREEN
  6
DCAD_SOLID
 62
    16
 48
2.0
  5
558
 66
     1
 10
0.0
 20
0.0
 30
0.0
 70
   128
  0
VERTEX
  8
SCREEN
  6
DCAD_SOLID
 62
    16
 48
2.0
  5
559
 10
3.203864
 20
0.289794
 30
0.0
 40
0.0
 41
0.0
  0
VERTEX
  8
SCREEN
  6
DCAD_SOLID
 62
    16
 48
2.0
  5
55A
 10
3.205869
 20
0.289792
 30
0.0
 40
0.0
 41
0.0
  0
VERTEX
  8
SCREEN
  6
DCAD_SOLID
 62
    16
 48
2.0
  5
55B
 10
3.20788
 20
0.29475
 30
0.0
 40
0.0
 41
0.0
  0
VERTEX
  8
SCREEN
  6
DCAD_SOLID
 62
    16
 48
2.0
  5
55C
 10
3.205861
 20
0.279431
 30
0.0
 40
0.0
 41
0.0
  0
VERTEX
  8
SCREEN
  6
DCAD_SOLID
 62
    16
 48
2.0
  5
55D
 10
3.205864
 20
0.284391
 30
0.0
 40
0.0
 41
0.0
  0
VERTEX
  8
SCREEN
  6
DCAD_SOLID
 62
    16
 48
2.0
  5
55E
 10
3.203864
 20
0.289794
 30
0.0
 40
0.0
 41
0.0
  0
VERTEX
  8
SCREEN
  6
DCAD_SOLID
 62
    16
 48
2.0
  5
55F
 10
3.20186
 20
0.292049
 30
0.0
 40
0.0
 41
0.0
  0
VERTEX
  8
SCREEN
  6
DCAD_SOLID
 62
    16
 48
2.0
  5
560
 10
3.196174
 20
0.294759
 30
0.0
 40
0.0
 41
0.0
  0
VERTEX
  8
SCREEN
  6
DCAD_SOLID
 62
    16
 48
2.0
  5
561
 10
3.188477
 20
0.294765
 30
0.0
 40
0.0
 41
0.0
  0
VERTEX
  8
SCREEN
  6
DCAD_SOLID
 62
    16
 48
2.0
  5
562
 10
3.182792
 20
0.292064
 30
0.0
 40
0.0
 41
0.0
  0
VERTEX
  8
SCREEN
  6
DCAD_SOLID
 62
    16
 48
2.0
  5
563
 10
3.179104
 20
0.287111
 30
0.0
 40
0.0
 41
0.0
  0
VERTEX
  8
SCREEN
  6
DCAD_SOLID
 62
    16
 48
2.0
  5
564
 10
3.179101
 20
0.281698
 30
0.0
 40
0.0
 41
0.0
  0
VERTEX
  8
SCREEN
  6
DCAD_SOLID
 62
    16
 48
2.0
  5
565
 10
3.181107
 20
0.276749
 30
0.0
 40
0.0
 41
0.0
  0
VERTEX
  8
SCREEN
  6
DCAD_SOLID
 62
    16
 48
2.0
  5
566
 10
3.182779
 20
0.274036
 30
0.0
 40
0.0
 41
0.0
  0
VERTEX
  8
SCREEN
  6
DCAD_SOLID
 62
    16
 48
2.0
  5
567
 10
3.196151
 20
0.263664
 30
0.0
 40
0.0
 41
0.0
  0
VERTEX
  8
SCREEN
  6
DCAD_SOLID
 62
    16
 48
2.0
  5
568
 10
3.200162
 20
0.258699
 30
0.0
 40
0.0
 41
0.0
  0
SEQEND
  8
0
  5
569
  0
POLYLINE
  8
SCREEN
  6
DCAD_SOLID
 62
    16
 48
2.0
  5
56A
 66
     1
 10
0.0
 20
0.0
 30
0.0
 70
   128
  0
VERTEX
  8
SCREEN
  6
DCAD_SOLID
 62
    16
 48
2.0
  5
56B
 10
3.175065
 20
0.245648
 30
0.0
 40
0.0
 41
0.0
  0
VERTEX
  8
SCREEN
  6
DCAD_SOLID
 62
    16
 48
2.0
  5
56C
 10
3.173388
 20
0.245649
 30
0.0
 40
0.0
 41
0.0
  0
VERTEX
  8
SCREEN
  6
DCAD_SOLID
 62
    16
 48
2.0
  5
56D
 10
3.171379
 20
0.240704
 30
0.0
 40
0.0
 41
0.0
  0
VERTEX
  8
SCREEN
  6
DCAD_SOLID
 62
    16
 48
2.0
  5
56E
 10
3.173396
 20
0.256014
 30
0.0
 40
0.0
 41
0.0
  0
VERTEX
  8
SCREEN
  6
DCAD_SOLID
 62
    16
 48
2.0
  5
56F
 10
3.173392
 20
0.251059
 30
0.0
 40
0.0
 41
0.0
  0
VERTEX
  8
SCREEN
  6
DCAD_SOLID
 62
    16
 48
2.0
  5
570
 10
3.175065
 20
0.245648
 30
0.0
 40
0.0
 41
0.0
  0
VERTEX
  8
SCREEN
  6
DCAD_SOLID
 62
    16
 48
2.0
  5
571
 10
3.177068
 20
0.243396
 30
0.0
 40
0.0
 41
0.0
  0
VERTEX
  8
SCREEN
  6
DCAD_SOLID
 62
    16
 48
2.0
  5
572
 10
3.182754
 20
0.240695
 30
0.0
 40
0.0
 41
0.0
  0
VERTEX
  8
SCREEN
  6
DCAD_SOLID
 62
    16
 48
2.0
  5
573
 10
3.190445
 20
0.240689
 30
0.0
 40
0.0
 41
0.0
  0
VERTEX
  8
SCREEN
  6
DCAD_SOLID
 62
    16
 48
2.0
  5
574
 10
3.196136
 20
0.243382
 30
0.0
 40
0.0
 41
0.0
  0
VERTEX
  8
SCREEN
  6
DCAD_SOLID
 62
    16
 48
2.0
  5
575
 10
3.198146
 20
0.245631
 30
0.0
 40
0.0
 41
0.0
  0
VERTEX
  8
SCREEN
  6
DCAD_SOLID
 62
    16
 48
2.0
  5
576
 10
3.200157
 20
0.25104
 30
0.0
 40
0.0
 41
0.0
  0
VERTEX
  8
SCREEN
  6
DCAD_SOLID
 62
    16
 48
2.0
  5
577
 10
3.200162
 20
0.258699
 30
0.0
 40
0.0
 41
0.0
  0
VERTEX
  8
SCREEN
  6
DCAD_SOLID
 62
    16
 48
2.0
  5
578
 10
3.198159
 20
0.263663
 30
0.0
 40
0.0
 41
0.0
  0
VERTEX
  8
SCREEN
  6
DCAD_SOLID
 62
    16
 48
2.0
  5
579
 10
3.196152
 20
0.266373
 30
0.0
 40
0.0
 41
0.0
  0
VERTEX
  8
SCREEN
  6
DCAD_SOLID
 62
    16
 48
2.0
  5
57A
 10
3.18278
 20
0.276748
 30
0.0
 40
0.0
 41
0.0
  0
VERTEX
  8
SCREEN
  6
DCAD_SOLID
 62
    16
 48
2.0
  5
57B
 10
3.179101
 20
0.281698
 30
0.0
 40
0.0
 41
0.0
  0
SEQEND
  8
0
  5
57C
  0
POLYLINE
  8
SCREEN
  6
DCAD_SOLID
 62
    16
 48
2.0
  5
57D
 66
     1
 10
0.0
 20
0.0
 30
0.0
 70
   128
  0
VERTEX
  8
SCREEN
  6
DCAD_SOLID
 62
    16
 48
2.0
  5
57E
 10
3.221927
 20
0.29474
 30
0.0
 40
0.0
 41
0.0
  0
VERTEX
  8
SCREEN
  6
DCAD_SOLID
 62
    16
 48
2.0
  5
57F
 10
3.229624
 20
0.294734
 30
0.0
 40
0.0
 41
0.0
  0
VERTEX
  8
SCREEN
  6
DCAD_SOLID
 62
    16
 48
2.0
  5
580
 10
3.2219
 20
0.258683
 30
0.0
 40
0.0
 41
0.0
  0
VERTEX
  8
SCREEN
  6
DCAD_SOLID
 62
    16
 48
2.0
  5
581
 10
3.219888
 20
0.248316
 30
0.0
 40
0.0
 41
0.0
  0
VERTEX
  8
SCREEN
  6
DCAD_SOLID
 62
    16
 48
2.0
  5
582
 10
3.219884
 20
0.243364
 30
0.0
 40
0.0
 41
0.0
  0
VERTEX
  8
SCREEN
  6
DCAD_SOLID
 62
    16
 48
2.0
  5
583
 10
3.221887
 20
0.240666
 30
0.0
 40
0.0
 41
0.0
  0
SEQEND
  8
0
  5
584
  0
POLYLINE
  8
SCREEN
  6
DCAD_SOLID
 62
    16
 48
2.0
  5
585
 66
     1
 10
0.0
 20
0.0
 30
0.0
 70
   128
  0
VERTEX
  8
SCREEN
  6
DCAD_SOLID
 62
    16
 48
2.0
  5
586
 10
3.231264
 20
0.251017
 30
0.0
 40
0.0
 41
0.0
  0
VERTEX
  8
SCREEN
  6
DCAD_SOLID
 62
    16
 48
2.0
  5
587
 10
3.229589
 20
0.245608
 30
0.0
 40
0.0
 41
0.0
  0
VERTEX
  8
SCREEN
  6
DCAD_SOLID
 62
    16
 48
2.0
  5
588
 10
3.225571
 20
0.240664
 30
0.0
 40
0.0
 41
0.0
  0
VERTEX
  8
SCREEN
  6
DCAD_SOLID
 62
    16
 48
2.0
  5
589
 10
3.219882
 20
0.240667
 30
0.0
 40
0.0
 41
0.0
  0
VERTEX
  8
SCREEN
  6
DCAD_SOLID
 62
    16
 48
2.0
  5
58A
 10
3.217876
 20
0.243366
 30
0.0
 40
0.0
 41
0.0
  0
VERTEX
  8
SCREEN
  6
DCAD_SOLID
 62
    16
 48
2.0
  5
58B
 10
3.21788
 20
0.248318
 30
0.0
 40
0.0
 41
0.0
  0
VERTEX
  8
SCREEN
  6
DCAD_SOLID
 62
    16
 48
2.0
  5
58C
 10
3.219896
 20
0.258684
 30
0.0
 40
0.0
 41
0.0
  0
VERTEX
  8
SCREEN
  6
DCAD_SOLID
 62
    16
 48
2.0
  5
58D
 10
3.227614
 20
0.294735
 30
0.0
 40
0.0
 41
0.0
  0
SEQEND
  8
0
  5
58E
  0
POLYLINE
  8
SCREEN
  6
DCAD_SOLID
 62
    16
 48
2.0
  5
58F
 66
     1
 10
0.0
 20
0.0
 30
0.0
 70
   128
  0
VERTEX
  8
SCREEN
  6
DCAD_SOLID
 62
    16
 48
2.0
  5
590
 10
3.252996
 20
0.240644
 30
0.0
 40
0.0
 41
0.0
  0
VERTEX
  8
SCREEN
  6
DCAD_SOLID
 62
    16
 48
2.0
  5
591
 10
3.256677
 20
0.243338
 30
0.0
 40
0.0
 41
0.0
  0
VERTEX
  8
SCREEN
  6
DCAD_SOLID
 62
    16
 48
2.0
  5
592
 10
3.260698
 20
0.250995
 30
0.0
 40
0.0
 41
0.0
  0
VERTEX
  8
SCREEN
  6
DCAD_SOLID
 62
    16
 48
2.0
  5
593
 10
3.262375
 20
0.258654
 30
0.0
 40
0.0
 41
0.0
  0
VERTEX
  8
SCREEN
  6
DCAD_SOLID
 62
    16
 48
2.0
  5
594
 10
3.262384
 20
0.26903
 30
0.0
 40
0.0
 41
0.0
  0
VERTEX
  8
SCREEN
  6
DCAD_SOLID
 62
    16
 48
2.0
  5
595
 10
3.260714
 20
0.273978
 30
0.0
 40
0.0
 41
0.0
  0
SEQEND
  8
0
  5
596
  0
POLYLINE
  8
SCREEN
  6
DCAD_SOLID
 62
    16
 48
2.0
  5
597
 66
     1
 10
0.0
 20
0.0
 30
0.0
 70
   128
  0
VERTEX
  8
SCREEN
  6
DCAD_SOLID
 62
    16
 48
2.0
  5
598
 10
3.253023
 20
0.276696
 30
0.0
 40
0.0
 41
0.0
  0
VERTEX
  8
SCREEN
  6
DCAD_SOLID
 62
    16
 48
2.0
  5
599
 10
3.249007
 20
0.273987
 30
0.0
 40
0.0
 41
0.0
  0
VERTEX
  8
SCREEN
  6
DCAD_SOLID
 62
    16
 48
2.0
  5
59A
 10
3.245323
 20
0.266337
 30
0.0
 40
0.0
 41
0.0
  0
VERTEX
  8
SCREEN
  6
DCAD_SOLID
 62
    16
 48
2.0
  5
59B
 10
3.243312
 20
0.258667
 30
0.0
 40
0.0
 41
0.0
  0
VERTEX
  8
SCREEN
  6
DCAD_SOLID
 62
    16
 48
2.0
  5
59C
 10
3.243305
 20
0.248299
 30
0.0
 40
0.0
 41
0.0
  0
VERTEX
  8
SCREEN
  6
DCAD_SOLID
 62
    16
 48
2.0
  5
59D
 10
3.245306
 20
0.243346
 30
0.0
 40
0.0
 41
0.0
  0
SEQEND
  8
0
  5
59E
  0
POLYLINE
  8
SCREEN
  6
DCAD_SOLID
 62
    16
 48
2.0
  5
59F
 66
     1
 10
0.0
 20
0.0
 30
0.0
 70
   129
  0
VERTEX
  8
SCREEN
  6
DCAD_SOLID
 62
    16
 48
2.0
  5
5A0
 10
3.253023
 20
0.276696
 30
0.0
 40
0.0
 41
0.0
  0
VERTEX
  8
SCREEN
  6
DCAD_SOLID
 62
    16
 48
2.0
  5
5A1
 10
3.247339
 20
0.273988
 30
0.0
 40
0.0
 41
0.0
  0
VERTEX
  8
SCREEN
  6
DCAD_SOLID
 62
    16
 48
2.0
  5
5A2
 10
3.243318
 20
0.266338
 30
0.0
 40
0.0
 41
0.0
  0
VERTEX
  8
SCREEN
  6
DCAD_SOLID
 62
    16
 48
2.0
  5
5A3
 10
3.241304
 20
0.258669
 30
0.0
 40
0.0
 41
0.0
  0
VERTEX
  8
SCREEN
  6
DCAD_SOLID
 62
    16
 48
2.0
  5
5A4
 10
3.241298
 20
0.251009
 30
0.0
 40
0.0
 41
0.0
  0
VERTEX
  8
SCREEN
  6
DCAD_SOLID
 62
    16
 48
2.0
  5
5A5
 10
3.243303
 20
0.245598
 30
0.0
 40
0.0
 41
0.0
  0
VERTEX
  8
SCREEN
  6
DCAD_SOLID
 62
    16
 48
2.0
  5
5A6
 10
3.245306
 20
0.243346
 30
0.0
 40
0.0
 41
0.0
  0
VERTEX
  8
SCREEN
  6
DCAD_SOLID
 62
    16
 48
2.0
  5
5A7
 10
3.248983
 20
0.240646
 30
0.0
 40
0.0
 41
0.0
  0
VERTEX
  8
SCREEN
  6
DCAD_SOLID
 62
    16
 48
2.0
  5
5A8
 10
3.252996
 20
0.240644
 30
0.0
 40
0.0
 41
0.0
  0
VERTEX
  8
SCREEN
  6
DCAD_SOLID
 62
    16
 48
2.0
  5
5A9
 10
3.258687
 20
0.243337
 30
0.0
 40
0.0
 41
0.0
  0
VERTEX
  8
SCREEN
  6
DCAD_SOLID
 62
    16
 48
2.0
  5
5AA
 10
3.262371
 20
0.250994
 30
0.0
 40
0.0
 41
0.0
  0
VERTEX
  8
SCREEN
  6
DCAD_SOLID
 62
    16
 48
2.0
  5
5AB
 10
3.264382
 20
0.258652
 30
0.0
 40
0.0
 41
0.0
  0
VERTEX
  8
SCREEN
  6
DCAD_SOLID
 62
    16
 48
2.0
  5
5AC
 10
3.26439
 20
0.266323
 30
0.0
 40
0.0
 41
0.0
  0
VERTEX
  8
SCREEN
  6
DCAD_SOLID
 62
    16
 48
2.0
  5
5AD
 10
3.262386
 20
0.271734
 30
0.0
 40
0.0
 41
0.0
  0
VERTEX
  8
SCREEN
  6
DCAD_SOLID
 62
    16
 48
2.0
  5
5AE
 10
3.260714
 20
0.273978
 30
0.0
 40
0.0
 41
0.0
  0
VERTEX
  8
SCREEN
  6
DCAD_SOLID
 62
    16
 48
2.0
  5
5AF
 10
3.256702
 20
0.276693
 30
0.0
 40
0.0
 41
0.0
  0
VERTEX
  8
SCREEN
  6
DCAD_SOLID
 62
    16
 48
2.0
  5
5B0
 10
3.253023
 20
0.276696
 30
0.0
 40
0.0
 41
0.0
  0
SEQEND
  8
0
  5
5B1
  0
POLYLINE
  8
SCREEN
  6
DCAD_SOLID
 62
    16
 48
2.0
  5
5B2
 66
     1
 10
0.0
 20
0.0
 30
0.0
 70
   128
  0
VERTEX
  8
SCREEN
  6
DCAD_SOLID
 62
    16
 48
2.0
  5
5B3
 10
3.305205
 20
0.276658
 30
0.0
 40
0.0
 41
0.0
  0
VERTEX
  8
SCREEN
  6
DCAD_SOLID
 62
    16
 48
2.0
  5
5B4
 10
3.297487
 20
0.240611
 30
0.0
 40
0.0
 41
0.0
  0
VERTEX
  8
SCREEN
  6
DCAD_SOLID
 62
    16
 48
2.0
  5
5B5
 10
3.295473
 20
0.232945
 30
0.0
 40
0.0
 41
0.0
  0
VERTEX
  8
SCREEN
  6
DCAD_SOLID
 62
    16
 48
2.0
  5
5B6
 10
3.291788
 20
0.225291
 30
0.0
 40
0.0
 41
0.0
  0
VERTEX
  8
SCREEN
  6
DCAD_SOLID
 62
    16
 48
2.0
  5
5B7
 10
3.285768
 20
0.222591
 30
0.0
 40
0.0
 41
0.0
  0
VERTEX
  8
SCREEN
  6
DCAD_SOLID
 62
    16
 48
2.0
  5
5B8
 10
3.28008
 20
0.222595
 30
0.0
 40
0.0
 41
0.0
  0
VERTEX
  8
SCREEN
  6
DCAD_SOLID
 62
    16
 48
2.0
  5
5B9
 10
3.276401
 20
0.225303
 30
0.0
 40
0.0
 41
0.0
  0
VERTEX
  8
SCREEN
  6
DCAD_SOLID
 62
    16
 48
2.0
  5
5BA
 10
3.274396
 20
0.227559
 30
0.0
 40
0.0
 41
0.0
  0
VERTEX
  8
SCREEN
  6
DCAD_SOLID
 62
    16
 48
2.0
  5
5BB
 10
3.274398
 20
0.230259
 30
0.0
 40
0.0
 41
0.0
  0
VERTEX
  8
SCREEN
  6
DCAD_SOLID
 62
    16
 48
2.0
  5
5BC
 10
3.276408
 20
0.232959
 30
0.0
 40
0.0
 41
0.0
  0
VERTEX
  8
SCREEN
  6
DCAD_SOLID
 62
    16
 48
2.0
  5
5BD
 10
3.278409
 20
0.230257
 30
0.0
 40
0.0
 41
0.0
  0
VERTEX
  8
SCREEN
  6
DCAD_SOLID
 62
    16
 48
2.0
  5
5BE
 10
3.276402
 20
0.227557
 30
0.0
 40
0.0
 41
0.0
  0
SEQEND
  8
0
  5
5BF
  0
POLYLINE
  8
SCREEN
  6
DCAD_SOLID
 62
    16
 48
2.0
  5
5C0
 66
     1
 10
0.0
 20
0.0
 30
0.0
 70
   128
  0
VERTEX
  8
SCREEN
  6
DCAD_SOLID
 62
    16
 48
2.0
  5
5C1
 10
3.285768
 20
0.222591
 30
0.0
 40
0.0
 41
0.0
  0
VERTEX
  8
SCREEN
  6
DCAD_SOLID
 62
    16
 48
2.0
  5
5C2
 10
3.289779
 20
0.225293
 30
0.0
 40
0.0
 41
0.0
  0
VERTEX
  8
SCREEN
  6
DCAD_SOLID
 62
    16
 48
2.0
  5
5C3
 10
3.293464
 20
0.232946
 30
0.0
 40
0.0
 41
0.0
  0
VERTEX
  8
SCREEN
  6
DCAD_SOLID
 62
    16
 48
2.0
  5
5C4
 10
3.295478
 20
0.240612
 30
0.0
 40
0.0
 41
0.0
  0
VERTEX
  8
SCREEN
  6
DCAD_SOLID
 62
    16
 48
2.0
  5
5C5
 10
3.303196
 20
0.276659
 30
0.0
 40
0.0
 41
0.0
  0
SEQEND
  8
0
  5
5C6
  0
POLYLINE
  8
SCREEN
  6
DCAD_SOLID
 62
    16
 48
2.0
  5
5C7
 66
     1
 10
0.0
 20
0.0
 30
0.0
 70
   128
  0
VERTEX
  8
SCREEN
  6
DCAD_SOLID
 62
    16
 48
2.0
  5
5C8
 10
3.289817
 20
0.27667
 30
0.0
 40
0.0
 41
0.0
  0
VERTEX
  8
SCREEN
  6
DCAD_SOLID
 62
    16
 48
2.0
  5
5C9
 10
3.285805
 20
0.27396
 30
0.0
 40
0.0
 41
0.0
  0
VERTEX
  8
SCREEN
  6
DCAD_SOLID
 62
    16
 48
2.0
  5
5CA
 10
3.282117
 20
0.26631
 30
0.0
 40
0.0
 41
0.0
  0
VERTEX
  8
SCREEN
  6
DCAD_SOLID
 62
    16
 48
2.0
  5
5CB
 10
3.280107
 20
0.25864
 30
0.0
 40
0.0
 41
0.0
  0
VERTEX
  8
SCREEN
  6
DCAD_SOLID
 62
    16
 48
2.0
  5
5CC
 10
3.280099
 20
0.248272
 30
0.0
 40
0.0
 41
0.0
  0
VERTEX
  8
SCREEN
  6
DCAD_SOLID
 62
    16
 48
2.0
  5
5CD
 10
3.282099
 20
0.243319
 30
0.0
 40
0.0
 41
0.0
  0
SEQEND
  8
0
  5
5CE
  0
POLYLINE
  8
SCREEN
  6
DCAD_SOLID
 62
    16
 48
2.0
  5
5CF
 66
     1
 10
0.0
 20
0.0
 30
0.0
 70
   129
  0
VERTEX
  8
SCREEN
  6
DCAD_SOLID
 62
    16
 48
2.0
  5
5D0
 10
3.299171
 20
0.258626
 30
0.0
 40
0.0
 41
0.0
  0
VERTEX
  8
SCREEN
  6
DCAD_SOLID
 62
    16
 48
2.0
  5
5D1
 10
3.299176
 20
0.266297
 30
0.0
 40
0.0
 41
0.0
  0
VERTEX
  8
SCREEN
  6
DCAD_SOLID
 62
    16
 48
2.0
  5
5D2
 10
3.297512
 20
0.273952
 30
0.0
 40
0.0
 41
0.0
  0
VERTEX
  8
SCREEN
  6
DCAD_SOLID
 62
    16
 48
2.0
  5
5D3
 10
3.293497
 20
0.276666
 30
0.0
 40
0.0
 41
0.0
  0
VERTEX
  8
SCREEN
  6
DCAD_SOLID
 62
    16
 48
2.0
  5
5D4
 10
3.289817
 20
0.27667
 30
0.0
 40
0.0
 41
0.0
  0
VERTEX
  8
SCREEN
  6
DCAD_SOLID
 62
    16
 48
2.0
  5
5D5
 10
3.28413
 20
0.273961
 30
0.0
 40
0.0
 41
0.0
  0
VERTEX
  8
SCREEN
  6
DCAD_SOLID
 62
    16
 48
2.0
  5
5D6
 10
3.280113
 20
0.266312
 30
0.0
 40
0.0
 41
0.0
  0
VERTEX
  8
SCREEN
  6
DCAD_SOLID
 62
    16
 48
2.0
  5
5D7
 10
3.27843
 20
0.258641
 30
0.0
 40
0.0
 41
0.0
  0
VERTEX
  8
SCREEN
  6
DCAD_SOLID
 62
    16
 48
2.0
  5
5D8
 10
3.278425
 20
0.250981
 30
0.0
 40
0.0
 41
0.0
  0
VERTEX
  8
SCREEN
  6
DCAD_SOLID
 62
    16
 48
2.0
  5
5D9
 10
3.280097
 20
0.245571
 30
0.0
 40
0.0
 41
0.0
  0
VERTEX
  8
SCREEN
  6
DCAD_SOLID
 62
    16
 48
2.0
  5
5DA
 10
3.282099
 20
0.243319
 30
0.0
 40
0.0
 41
0.0
  0
VERTEX
  8
SCREEN
  6
DCAD_SOLID
 62
    16
 48
2.0
  5
5DB
 10
3.285781
 20
0.240619
 30
0.0
 40
0.0
 41
0.0
  0
VERTEX
  8
SCREEN
  6
DCAD_SOLID
 62
    16
 48
2.0
  5
5DC
 10
3.289791
 20
0.240617
 30
0.0
 40
0.0
 41
0.0
  0
VERTEX
  8
SCREEN
  6
DCAD_SOLID
 62
    16
 48
2.0
  5
5DD
 10
3.293472
 20
0.243311
 30
0.0
 40
0.0
 41
0.0
  0
VERTEX
  8
SCREEN
  6
DCAD_SOLID
 62
    16
 48
2.0
  5
5DE
 10
3.297493
 20
0.250968
 30
0.0
 40
0.0
 41
0.0
  0
VERTEX
  8
SCREEN
  6
DCAD_SOLID
 62
    16
 48
2.0
  5
5DF
 10
3.299171
 20
0.258626
 30
0.0
 40
0.0
 41
0.0
  0
SEQEND
  8
0
  5
5E0
  0
POLYLINE
  8
SCREEN
  6
DCAD_SOLID
 62
    16
 48
2.0
  5
5E1
 66
     1
 10
0.0
 20
0.0
 30
0.0
 70
   128
  0
VERTEX
  8
SCREEN
  6
DCAD_SOLID
 62
    16
 48
2.0
  5
5E2
 10
3.339994
 20
0.276632
 30
0.0
 40
0.0
 41
0.0
  0
VERTEX
  8
SCREEN
  6
DCAD_SOLID
 62
    16
 48
2.0
  5
5E3
 10
3.336298
 20
0.258599
 30
0.0
 40
0.0
 41
0.0
  0
VERTEX
  8
SCREEN
  6
DCAD_SOLID
 62
    16
 48
2.0
  5
5E4
 10
3.334287
 20
0.248233
 30
0.0
 40
0.0
 41
0.0
  0
VERTEX
  8
SCREEN
  6
DCAD_SOLID
 62
    16
 48
2.0
  5
5E5
 10
3.334282
 20
0.243281
 30
0.0
 40
0.0
 41
0.0
  0
VERTEX
  8
SCREEN
  6
DCAD_SOLID
 62
    16
 48
2.0
  5
5E6
 10
3.336285
 20
0.240583
 30
0.0
 40
0.0
 41
0.0
  0
VERTEX
  8
SCREEN
  6
DCAD_SOLID
 62
    16
 48
2.0
  5
5E7
 10
3.341974
 20
0.240579
 30
0.0
 40
0.0
 41
0.0
  0
VERTEX
  8
SCREEN
  6
DCAD_SOLID
 62
    16
 48
2.0
  5
5E8
 10
3.34599
 20
0.245524
 30
0.0
 40
0.0
 41
0.0
  0
VERTEX
  8
SCREEN
  6
DCAD_SOLID
 62
    16
 48
2.0
  5
5E9
 10
3.347669
 20
0.250931
 30
0.0
 40
0.0
 41
0.0
  0
SEQEND
  8
0
  5
5EA
  0
POLYLINE
  8
SCREEN
  6
DCAD_SOLID
 62
    16
 48
2.0
  5
5EB
 66
     1
 10
0.0
 20
0.0
 30
0.0
 70
   128
  0
VERTEX
  8
SCREEN
  6
DCAD_SOLID
 62
    16
 48
2.0
  5
5EC
 10
3.338293
 20
0.240581
 30
0.0
 40
0.0
 41
0.0
  0
VERTEX
  8
SCREEN
  6
DCAD_SOLID
 62
    16
 48
2.0
  5
5ED
 10
3.336288
 20
0.24328
 30
0.0
 40
0.0
 41
0.0
  0
VERTEX
  8
SCREEN
  6
DCAD_SOLID
 62
    16
 48
2.0
  5
5EE
 10
3.336292
 20
0.248231
 30
0.0
 40
0.0
 41
0.0
  0
VERTEX
  8
SCREEN
  6
DCAD_SOLID
 62
    16
 48
2.0
  5
5EF
 10
3.338306
 20
0.258597
 30
0.0
 40
0.0
 41
0.0
  0
VERTEX
  8
SCREEN
  6
DCAD_SOLID
 62
    16
 48
2.0
  5
5F0
 10
3.342
 20
0.276631
 30
0.0
 40
0.0
 41
0.0
  0
SEQEND
  8
0
  5
5F1
  0
POLYLINE
  8
SCREEN
  6
DCAD_SOLID
 62
    16
 48
2.0
  5
5F2
 66
     1
 10
0.0
 20
0.0
 30
0.0
 70
   129
  0
VERTEX
  8
SCREEN
  6
DCAD_SOLID
 62
    16
 48
2.0
  5
5F3
 10
3.336298
 20
0.258599
 30
0.0
 40
0.0
 41
0.0
  0
VERTEX
  8
SCREEN
  6
DCAD_SOLID
 62
    16
 48
2.0
  5
5F4
 10
3.336305
 20
0.266271
 30
0.0
 40
0.0
 41
0.0
  0
VERTEX
  8
SCREEN
  6
DCAD_SOLID
 62
    16
 48
2.0
  5
5F5
 10
3.334305
 20
0.273924
 30
0.0
 40
0.0
 41
0.0
  0
VERTEX
  8
SCREEN
  6
DCAD_SOLID
 62
    16
 48
2.0
  5
5F6
 10
3.330628
 20
0.276639
 30
0.0
 40
0.0
 41
0.0
  0
VERTEX
  8
SCREEN
  6
DCAD_SOLID
 62
    16
 48
2.0
  5
5F7
 10
3.326613
 20
0.276642
 30
0.0
 40
0.0
 41
0.0
  0
VERTEX
  8
SCREEN
  6
DCAD_SOLID
 62
    16
 48
2.0
  5
5F8
 10
3.320924
 20
0.273934
 30
0.0
 40
0.0
 41
0.0
  0
VERTEX
  8
SCREEN
  6
DCAD_SOLID
 62
    16
 48
2.0
  5
5F9
 10
3.317238
 20
0.266285
 30
0.0
 40
0.0
 41
0.0
  0
VERTEX
  8
SCREEN
  6
DCAD_SOLID
 62
    16
 48
2.0
  5
5FA
 10
3.315227
 20
0.258615
 30
0.0
 40
0.0
 41
0.0
  0
VERTEX
  8
SCREEN
  6
DCAD_SOLID
 62
    16
 48
2.0
  5
5FB
 10
3.315221
 20
0.250955
 30
0.0
 40
0.0
 41
0.0
  0
VERTEX
  8
SCREEN
  6
DCAD_SOLID
 62
    16
 48
2.0
  5
5FC
 10
3.317223
 20
0.245545
 30
0.0
 40
0.0
 41
0.0
  0
VERTEX
  8
SCREEN
  6
DCAD_SOLID
 62
    16
 48
2.0
  5
5FD
 10
3.319231
 20
0.243292
 30
0.0
 40
0.0
 41
0.0
  0
VERTEX
  8
SCREEN
  6
DCAD_SOLID
 62
    16
 48
2.0
  5
5FE
 10
3.322908
 20
0.240592
 30
0.0
 40
0.0
 41
0.0
  0
VERTEX
  8
SCREEN
  6
DCAD_SOLID
 62
    16
 48
2.0
  5
5FF
 10
3.326587
 20
0.240589
 30
0.0
 40
0.0
 41
0.0
  0
VERTEX
  8
SCREEN
  6
DCAD_SOLID
 62
    16
 48
2.0
  5
600
 10
3.330604
 20
0.243283
 30
0.0
 40
0.0
 41
0.0
  0
VERTEX
  8
SCREEN
  6
DCAD_SOLID
 62
    16
 48
2.0
  5
601
 10
3.334289
 20
0.25094
 30
0.0
 40
0.0
 41
0.0
  0
VERTEX
  8
SCREEN
  6
DCAD_SOLID
 62
    16
 48
2.0
  5
602
 10
3.336298
 20
0.258599
 30
0.0
 40
0.0
 41
0.0
  0
SEQEND
  8
0
  5
603
  0
POLYLINE
  8
SCREEN
  6
DCAD_SOLID
 62
    16
 48
2.0
  5
604
 66
     1
 10
0.0
 20
0.0
 30
0.0
 70
   128
  0
VERTEX
  8
SCREEN
  6
DCAD_SOLID
 62
    16
 48
2.0
  5
605
 10
3.326613
 20
0.276642
 30
0.0
 40
0.0
 41
0.0
  0
VERTEX
  8
SCREEN
  6
DCAD_SOLID
 62
    16
 48
2.0
  5
606
 10
3.322932
 20
0.273933
 30
0.0
 40
0.0
 41
0.0
  0
VERTEX
  8
SCREEN
  6
DCAD_SOLID
 62
    16
 48
2.0
  5
607
 10
3.319247
 20
0.266283
 30
0.0
 40
0.0
 41
0.0
  0
VERTEX
  8
SCREEN
  6
DCAD_SOLID
 62
    16
 48
2.0
  5
608
 10
3.317233
 20
0.258614
 30
0.0
 40
0.0
 41
0.0
  0
VERTEX
  8
SCREEN
  6
DCAD_SOLID
 62
    16
 48
2.0
  5
609
 10
3.317225
 20
0.248245
 30
0.0
 40
0.0
 41
0.0
  0
VERTEX
  8
SCREEN
  6
DCAD_SOLID
 62
    16
 48
2.0
  5
60A
 10
3.319231
 20
0.243292
 30
0.0
 40
0.0
 41
0.0
  0
SEQEND
  8
0
  5
60B
  0
POLYLINE
  8
SCREEN
  6
DCAD_SOLID
 62
    16
 48
2.0
  5
60C
 66
     1
 10
0.0
 20
0.0
 30
0.0
 70
   128
  0
VERTEX
  8
SCREEN
  6
DCAD_SOLID
 62
    16
 48
2.0
  5
60D
 10
3.357712
 20
0.266255
 30
0.0
 40
0.0
 41
0.0
  0
VERTEX
  8
SCREEN
  6
DCAD_SOLID
 62
    16
 48
2.0
  5
60E
 10
3.359725
 20
0.271663
 30
0.0
 40
0.0
 41
0.0
  0
VERTEX
  8
SCREEN
  6
DCAD_SOLID
 62
    16
 48
2.0
  5
60F
 10
3.363409
 20
0.276615
 30
0.0
 40
0.0
 41
0.0
  0
VERTEX
  8
SCREEN
  6
DCAD_SOLID
 62
    16
 48
2.0
  5
610
 10
3.369095
 20
0.276611
 30
0.0
 40
0.0
 41
0.0
  0
VERTEX
  8
SCREEN
  6
DCAD_SOLID
 62
    16
 48
2.0
  5
611
 10
3.371103
 20
0.273897
 30
0.0
 40
0.0
 41
0.0
  0
VERTEX
  8
SCREEN
  6
DCAD_SOLID
 62
    16
 48
2.0
  5
612
 10
3.371099
 20
0.26895
 30
0.0
 40
0.0
 41
0.0
  0
VERTEX
  8
SCREEN
  6
DCAD_SOLID
 62
    16
 48
2.0
  5
613
 10
3.369083
 20
0.258576
 30
0.0
 40
0.0
 41
0.0
  0
VERTEX
  8
SCREEN
  6
DCAD_SOLID
 62
    16
 48
2.0
  5
614
 10
3.36539
 20
0.240562
 30
0.0
 40
0.0
 41
0.0
  0
SEQEND
  8
0
  5
615
  0
POLYLINE
  8
SCREEN
  6
DCAD_SOLID
 62
    16
 48
2.0
  5
616
 66
     1
 10
0.0
 20
0.0
 30
0.0
 70
   128
  0
VERTEX
  8
SCREEN
  6
DCAD_SOLID
 62
    16
 48
2.0
  5
617
 10
3.363382
 20
0.240563
 30
0.0
 40
0.0
 41
0.0
  0
VERTEX
  8
SCREEN
  6
DCAD_SOLID
 62
    16
 48
2.0
  5
618
 10
3.367405
 20
0.258576
 30
0.0
 40
0.0
 41
0.0
  0
VERTEX
  8
SCREEN
  6
DCAD_SOLID
 62
    16
 48
2.0
  5
619
 10
3.369091
 20
0.268951
 30
0.0
 40
0.0
 41
0.0
  0
VERTEX
  8
SCREEN
  6
DCAD_SOLID
 62
    16
 48
2.0
  5
61A
 10
3.369093
 20
0.273898
 30
0.0
 40
0.0
 41
0.0
  0
VERTEX
  8
SCREEN
  6
DCAD_SOLID
 62
    16
 48
2.0
  5
61B
 10
3.36742
 20
0.276612
 30
0.0
 40
0.0
 41
0.0
  0
SEQEND
  8
0
  5
61C
  0
POLYLINE
  8
SCREEN
  6
DCAD_SOLID
 62
    16
 48
2.0
  5
61D
 66
     1
 10
0.0
 20
0.0
 30
0.0
 70
   128
  0
VERTEX
  8
SCREEN
  6
DCAD_SOLID
 62
    16
 48
2.0
  5
61E
 10
3.369083
 20
0.258576
 30
0.0
 40
0.0
 41
0.0
  0
VERTEX
  8
SCREEN
  6
DCAD_SOLID
 62
    16
 48
2.0
  5
61F
 10
3.373103
 20
0.268949
 30
0.0
 40
0.0
 41
0.0
  0
VERTEX
  8
SCREEN
  6
DCAD_SOLID
 62
    16
 48
2.0
  5
620
 10
3.376789
 20
0.273893
 30
0.0
 40
0.0
 41
0.0
  0
VERTEX
  8
SCREEN
  6
DCAD_SOLID
 62
    16
 48
2.0
  5
621
 10
3.380802
 20
0.276603
 30
0.0
 40
0.0
 41
0.0
  0
VERTEX
  8
SCREEN
  6
DCAD_SOLID
 62
    16
 48
2.0
  5
622
 10
3.38448
 20
0.2766
 30
0.0
 40
0.0
 41
0.0
  0
VERTEX
  8
SCREEN
  6
DCAD_SOLID
 62
    16
 48
2.0
  5
623
 10
3.388159
 20
0.273885
 30
0.0
 40
0.0
 41
0.0
  0
VERTEX
  8
SCREEN
  6
DCAD_SOLID
 62
    16
 48
2.0
  5
624
 10
3.390165
 20
0.271641
 30
0.0
 40
0.0
 41
0.0
  0
VERTEX
  8
SCREEN
  6
DCAD_SOLID
 62
    16
 48
2.0
  5
625
 10
3.39016
 20
0.266231
 30
0.0
 40
0.0
 41
0.0
  0
VERTEX
  8
SCREEN
  6
DCAD_SOLID
 62
    16
 48
2.0
  5
626
 10
3.386469
 20
0.250902
 30
0.0
 40
0.0
 41
0.0
  0
VERTEX
  8
SCREEN
  6
DCAD_SOLID
 62
    16
 48
2.0
  5
627
 10
3.386464
 20
0.243242
 30
0.0
 40
0.0
 41
0.0
  0
VERTEX
  8
SCREEN
  6
DCAD_SOLID
 62
    16
 48
2.0
  5
628
 10
3.388135
 20
0.240544
 30
0.0
 40
0.0
 41
0.0
  0
SEQEND
  8
0
  5
629
  0
POLYLINE
  8
SCREEN
  6
DCAD_SOLID
 62
    16
 48
2.0
  5
62A
 66
     1
 10
0.0
 20
0.0
 30
0.0
 70
   128
  0
VERTEX
  8
SCREEN
  6
DCAD_SOLID
 62
    16
 48
2.0
  5
62B
 10
3.397842
 20
0.250894
 30
0.0
 40
0.0
 41
0.0
  0
VERTEX
  8
SCREEN
  6
DCAD_SOLID
 62
    16
 48
2.0
  5
62C
 10
3.39583
 20
0.245486
 30
0.0
 40
0.0
 41
0.0
  0
VERTEX
  8
SCREEN
  6
DCAD_SOLID
 62
    16
 48
2.0
  5
62D
 10
3.392148
 20
0.240542
 30
0.0
 40
0.0
 41
0.0
  0
VERTEX
  8
SCREEN
  6
DCAD_SOLID
 62
    16
 48
2.0
  5
62E
 10
3.386463
 20
0.240545
 30
0.0
 40
0.0
 41
0.0
  0
VERTEX
  8
SCREEN
  6
DCAD_SOLID
 62
    16
 48
2.0
  5
62F
 10
3.384456
 20
0.243244
 30
0.0
 40
0.0
 41
0.0
  0
VERTEX
  8
SCREEN
  6
DCAD_SOLID
 62
    16
 48
2.0
  5
630
 10
3.384461
 20
0.250904
 30
0.0
 40
0.0
 41
0.0
  0
VERTEX
  8
SCREEN
  6
DCAD_SOLID
 62
    16
 48
2.0
  5
631
 10
3.388155
 20
0.266233
 30
0.0
 40
0.0
 41
0.0
  0
VERTEX
  8
SCREEN
  6
DCAD_SOLID
 62
    16
 48
2.0
  5
632
 10
3.388158
 20
0.271642
 30
0.0
 40
0.0
 41
0.0
  0
VERTEX
  8
SCREEN
  6
DCAD_SOLID
 62
    16
 48
2.0
  5
633
 10
3.38448
 20
0.2766
 30
0.0
 40
0.0
 41
0.0
  0
SEQEND
  8
0
  5
634
  0
POLYLINE
  8
SCREEN
  6
DCAD_SOLID
 62
    16
 48
2.0
  5
635
 66
     1
 10
0.0
 20
0.0
 30
0.0
 70
   128
  0
VERTEX
  8
SCREEN
  6
DCAD_SOLID
 62
    16
 48
2.0
  5
636
 10
2.988623
 20
0.206943
 30
0.0
 40
0.0
 41
0.0
  0
VERTEX
  8
SCREEN
  6
DCAD_SOLID
 62
    16
 48
2.0
  5
637
 10
2.984941
 20
0.20424
 30
0.0
 40
0.0
 41
0.0
  0
VERTEX
  8
SCREEN
  6
DCAD_SOLID
 62
    16
 48
2.0
  5
638
 10
2.981259
 20
0.199288
 30
0.0
 40
0.0
 41
0.0
  0
VERTEX
  8
SCREEN
  6
DCAD_SOLID
 62
    16
 48
2.0
  5
639
 10
2.97724
 20
0.19163
 30
0.0
 40
0.0
 41
0.0
  0
VERTEX
  8
SCREEN
  6
DCAD_SOLID
 62
    16
 48
2.0
  5
63A
 10
2.97523
 20
0.183976
 30
0.0
 40
0.0
 41
0.0
  0
VERTEX
  8
SCREEN
  6
DCAD_SOLID
 62
    16
 48
2.0
  5
63B
 10
2.973548
 20
0.173605
 30
0.0
 40
0.0
 41
0.0
  0
VERTEX
  8
SCREEN
  6
DCAD_SOLID
 62
    16
 48
2.0
  5
63C
 10
2.973542
 20
0.165938
 30
0.0
 40
0.0
 41
0.0
  0
VERTEX
  8
SCREEN
  6
DCAD_SOLID
 62
    16
 48
2.0
  5
63D
 10
2.975211
 20
0.157827
 30
0.0
 40
0.0
 41
0.0
  0
VERTEX
  8
SCREEN
  6
DCAD_SOLID
 62
    16
 48
2.0
  5
63E
 10
2.977214
 20
0.155574
 30
0.0
 40
0.0
 41
0.0
  0
VERTEX
  8
SCREEN
  6
DCAD_SOLID
 62
    16
 48
2.0
  5
63F
 10
2.981225
 20
0.152874
 30
0.0
 40
0.0
 41
0.0
  0
SEQEND
  8
0
  5
640
  0
POLYLINE
  8
SCREEN
  6
DCAD_SOLID
 62
    16
 48
2.0
  5
641
 66
     1
 10
0.0
 20
0.0
 30
0.0
 70
   128
  0
VERTEX
  8
SCREEN
  6
DCAD_SOLID
 62
    16
 48
2.0
  5
642
 10
2.996289
 20
0.165921
 30
0.0
 40
0.0
 41
0.0
  0
VERTEX
  8
SCREEN
  6
DCAD_SOLID
 62
    16
 48
2.0
  5
643
 10
2.99461
 20
0.160513
 30
0.0
 40
0.0
 41
0.0
  0
VERTEX
  8
SCREEN
  6
DCAD_SOLID
 62
    16
 48
2.0
  5
644
 10
2.990593
 20
0.155564
 30
0.0
 40
0.0
 41
0.0
  0
VERTEX
  8
SCREEN
  6
DCAD_SOLID
 62
    16
 48
2.0
  5
645
 10
2.986914
 20
0.15287
 30
0.0
 40
0.0
 41
0.0
  0
VERTEX
  8
SCREEN
  6
DCAD_SOLID
 62
    16
 48
2.0
  5
646
 10
2.981225
 20
0.152874
 30
0.0
 40
0.0
 41
0.0
  0
VERTEX
  8
SCREEN
  6
DCAD_SOLID
 62
    16
 48
2.0
  5
647
 10
2.97521
 20
0.155576
 30
0.0
 40
0.0
 41
0.0
  0
VERTEX
  8
SCREEN
  6
DCAD_SOLID
 62
    16
 48
2.0
  5
648
 10
2.973536
 20
0.157827
 30
0.0
 40
0.0
 41
0.0
  0
VERTEX
  8
SCREEN
  6
DCAD_SOLID
 62
    16
 48
2.0
  5
649
 10
2.971535
 20
0.165939
 30
0.0
 40
0.0
 41
0.0
  0
VERTEX
  8
SCREEN
  6
DCAD_SOLID
 62
    16
 48
2.0
  5
64A
 10
2.971541
 20
0.173607
 30
0.0
 40
0.0
 41
0.0
  0
VERTEX
  8
SCREEN
  6
DCAD_SOLID
 62
    16
 48
2.0
  5
64B
 10
2.973555
 20
0.183977
 30
0.0
 40
0.0
 41
0.0
  0
VERTEX
  8
SCREEN
  6
DCAD_SOLID
 62
    16
 48
2.0
  5
64C
 10
2.975235
 20
0.191632
 30
0.0
 40
0.0
 41
0.0
  0
VERTEX
  8
SCREEN
  6
DCAD_SOLID
 62
    16
 48
2.0
  5
64D
 10
2.979254
 20
0.199289
 30
0.0
 40
0.0
 41
0.0
  0
VERTEX
  8
SCREEN
  6
DCAD_SOLID
 62
    16
 48
2.0
  5
64E
 10
2.982934
 20
0.204242
 30
0.0
 40
0.0
 41
0.0
  0
VERTEX
  8
SCREEN
  6
DCAD_SOLID
 62
    16
 48
2.0
  5
64F
 10
2.988623
 20
0.206943
 30
0.0
 40
0.0
 41
0.0
  0
VERTEX
  8
SCREEN
  6
DCAD_SOLID
 62
    16
 48
2.0
  5
650
 10
2.994645
 20
0.206938
 30
0.0
 40
0.0
 41
0.0
  0
VERTEX
  8
SCREEN
  6
DCAD_SOLID
 62
    16
 48
2.0
  5
651
 10
2.998322
 20
0.20423
 30
0.0
 40
0.0
 41
0.0
  0
VERTEX
  8
SCREEN
  6
DCAD_SOLID
 62
    16
 48
2.0
  5
652
 10
3.000327
 20
0.201975
 30
0.0
 40
0.0
 41
0.0
  0
VERTEX
  8
SCREEN
  6
DCAD_SOLID
 62
    16
 48
2.0
  5
653
 10
3.001997
 20
0.196571
 30
0.0
 40
0.0
 41
0.0
  0
VERTEX
  8
SCREEN
  6
DCAD_SOLID
 62
    16
 48
2.0
  5
654
 10
3.001994
 20
0.191613
 30
0.0
 40
0.0
 41
0.0
  0
VERTEX
  8
SCREEN
  6
DCAD_SOLID
 62
    16
 48
2.0
  5
655
 10
3.004011
 20
0.206931
 30
0.0
 40
0.0
 41
0.0
  0
VERTEX
  8
SCREEN
  6
DCAD_SOLID
 62
    16
 48
2.0
  5
656
 10
3.002
 20
0.201973
 30
0.0
 40
0.0
 41
0.0
  0
VERTEX
  8
SCREEN
  6
DCAD_SOLID
 62
    16
 48
2.0
  5
657
 10
3.000327
 20
0.201975
 30
0.0
 40
0.0
 41
0.0
  0
SEQEND
  8
0
  5
658
  0
POLYLINE
  8
SCREEN
  6
DCAD_SOLID
 62
    16
 48
2.0
  5
659
 66
     1
 10
0.0
 20
0.0
 30
0.0
 70
   128
  0
VERTEX
  8
SCREEN
  6
DCAD_SOLID
 62
    16
 48
2.0
  5
65A
 10
3.025715
 20
0.152842
 30
0.0
 40
0.0
 41
0.0
  0
VERTEX
  8
SCREEN
  6
DCAD_SOLID
 62
    16
 48
2.0
  5
65B
 10
3.029397
 20
0.155536
 30
0.0
 40
0.0
 41
0.0
  0
VERTEX
  8
SCREEN
  6
DCAD_SOLID
 62
    16
 48
2.0
  5
65C
 10
3.033415
 20
0.163193
 30
0.0
 40
0.0
 41
0.0
  0
VERTEX
  8
SCREEN
  6
DCAD_SOLID
 62
    16
 48
2.0
  5
65D
 10
3.035096
 20
0.170852
 30
0.0
 40
0.0
 41
0.0
  0
VERTEX
  8
SCREEN
  6
DCAD_SOLID
 62
    16
 48
2.0
  5
65E
 10
3.035103
 20
0.181228
 30
0.0
 40
0.0
 41
0.0
  0
VERTEX
  8
SCREEN
  6
DCAD_SOLID
 62
    16
 48
2.0
  5
65F
 10
3.033432
 20
0.186176
 30
0.0
 40
0.0
 41
0.0
  0
SEQEND
  8
0
  5
660
  0
POLYLINE
  8
SCREEN
  6
DCAD_SOLID
 62
    16
 48
2.0
  5
661
 66
     1
 10
0.0
 20
0.0
 30
0.0
 70
   128
  0
VERTEX
  8
SCREEN
  6
DCAD_SOLID
 62
    16
 48
2.0
  5
662
 10
3.025742
 20
0.188894
 30
0.0
 40
0.0
 41
0.0
  0
VERTEX
  8
SCREEN
  6
DCAD_SOLID
 62
    16
 48
2.0
  5
663
 10
3.021725
 20
0.186185
 30
0.0
 40
0.0
 41
0.0
  0
VERTEX
  8
SCREEN
  6
DCAD_SOLID
 62
    16
 48
2.0
  5
664
 10
3.01804
 20
0.178536
 30
0.0
 40
0.0
 41
0.0
  0
VERTEX
  8
SCREEN
  6
DCAD_SOLID
 62
    16
 48
2.0
  5
665
 10
3.016026
 20
0.170865
 30
0.0
 40
0.0
 41
0.0
  0
VERTEX
  8
SCREEN
  6
DCAD_SOLID
 62
    16
 48
2.0
  5
666
 10
3.016018
 20
0.160498
 30
0.0
 40
0.0
 41
0.0
  0
VERTEX
  8
SCREEN
  6
DCAD_SOLID
 62
    16
 48
2.0
  5
667
 10
3.018022
 20
0.155544
 30
0.0
 40
0.0
 41
0.0
  0
SEQEND
  8
0
  5
668
  0
POLYLINE
  8
SCREEN
  6
DCAD_SOLID
 62
    16
 48
2.0
  5
669
 66
     1
 10
0.0
 20
0.0
 30
0.0
 70
   129
  0
VERTEX
  8
SCREEN
  6
DCAD_SOLID
 62
    16
 48
2.0
  5
66A
 10
3.025742
 20
0.188894
 30
0.0
 40
0.0
 41
0.0
  0
VERTEX
  8
SCREEN
  6
DCAD_SOLID
 62
    16
 48
2.0
  5
66B
 10
3.020052
 20
0.186187
 30
0.0
 40
0.0
 41
0.0
  0
VERTEX
  8
SCREEN
  6
DCAD_SOLID
 62
    16
 48
2.0
  5
66C
 10
3.016032
 20
0.178537
 30
0.0
 40
0.0
 41
0.0
  0
VERTEX
  8
SCREEN
  6
DCAD_SOLID
 62
    16
 48
2.0
  5
66D
 10
3.014019
 20
0.170867
 30
0.0
 40
0.0
 41
0.0
  0
VERTEX
  8
SCREEN
  6
DCAD_SOLID
 62
    16
 48
2.0
  5
66E
 10
3.014014
 20
0.163207
 30
0.0
 40
0.0
 41
0.0
  0
VERTEX
  8
SCREEN
  6
DCAD_SOLID
 62
    16
 48
2.0
  5
66F
 10
3.016016
 20
0.157797
 30
0.0
 40
0.0
 41
0.0
  0
VERTEX
  8
SCREEN
  6
DCAD_SOLID
 62
    16
 48
2.0
  5
670
 10
3.018022
 20
0.155544
 30
0.0
 40
0.0
 41
0.0
  0
VERTEX
  8
SCREEN
  6
DCAD_SOLID
 62
    16
 48
2.0
  5
671
 10
3.0217
 20
0.152845
 30
0.0
 40
0.0
 41
0.0
  0
VERTEX
  8
SCREEN
  6
DCAD_SOLID
 62
    16
 48
2.0
  5
672
 10
3.025715
 20
0.152842
 30
0.0
 40
0.0
 41
0.0
  0
VERTEX
  8
SCREEN
  6
DCAD_SOLID
 62
    16
 48
2.0
  5
673
 10
3.031401
 20
0.155535
 30
0.0
 40
0.0
 41
0.0
  0
VERTEX
  8
SCREEN
  6
DCAD_SOLID
 62
    16
 48
2.0
  5
674
 10
3.03509
 20
0.163192
 30
0.0
 40
0.0
 41
0.0
  0
VERTEX
  8
SCREEN
  6
DCAD_SOLID
 62
    16
 48
2.0
  5
675
 10
3.037102
 20
0.17085
 30
0.0
 40
0.0
 41
0.0
  0
VERTEX
  8
SCREEN
  6
DCAD_SOLID
 62
    16
 48
2.0
  5
676
 10
3.037108
 20
0.178522
 30
0.0
 40
0.0
 41
0.0
  0
VERTEX
  8
SCREEN
  6
DCAD_SOLID
 62
    16
 48
2.0
  5
677
 10
3.035105
 20
0.183932
 30
0.0
 40
0.0
 41
0.0
  0
VERTEX
  8
SCREEN
  6
DCAD_SOLID
 62
    16
 48
2.0
  5
678
 10
3.033432
 20
0.186176
 30
0.0
 40
0.0
 41
0.0
  0
VERTEX
  8
SCREEN
  6
DCAD_SOLID
 62
    16
 48
2.0
  5
679
 10
3.029421
 20
0.188892
 30
0.0
 40
0.0
 41
0.0
  0
VERTEX
  8
SCREEN
  6
DCAD_SOLID
 62
    16
 48
2.0
  5
67A
 10
3.025742
 20
0.188894
 30
0.0
 40
0.0
 41
0.0
  0
SEQEND
  8
0
  5
67B
  0
POLYLINE
  8
SCREEN
  6
DCAD_SOLID
 62
    16
 48
2.0
  5
67C
 66
     1
 10
0.0
 20
0.0
 30
0.0
 70
   128
  0
VERTEX
  8
SCREEN
  6
DCAD_SOLID
 62
    16
 48
2.0
  5
67D
 10
3.058506
 20
0.170835
 30
0.0
 40
0.0
 41
0.0
  0
VERTEX
  8
SCREEN
  6
DCAD_SOLID
 62
    16
 48
2.0
  5
67E
 10
3.062529
 20
0.181208
 30
0.0
 40
0.0
 41
0.0
  0
VERTEX
  8
SCREEN
  6
DCAD_SOLID
 62
    16
 48
2.0
  5
67F
 10
3.066212
 20
0.186153
 30
0.0
 40
0.0
 41
0.0
  0
VERTEX
  8
SCREEN
  6
DCAD_SOLID
 62
    16
 48
2.0
  5
680
 10
3.070227
 20
0.188862
 30
0.0
 40
0.0
 41
0.0
  0
VERTEX
  8
SCREEN
  6
DCAD_SOLID
 62
    16
 48
2.0
  5
681
 10
3.073905
 20
0.188859
 30
0.0
 40
0.0
 41
0.0
  0
VERTEX
  8
SCREEN
  6
DCAD_SOLID
 62
    16
 48
2.0
  5
682
 10
3.077583
 20
0.186144
 30
0.0
 40
0.0
 41
0.0
  0
VERTEX
  8
SCREEN
  6
DCAD_SOLID
 62
    16
 48
2.0
  5
683
 10
3.07959
 20
0.1839
 30
0.0
 40
0.0
 41
0.0
  0
VERTEX
  8
SCREEN
  6
DCAD_SOLID
 62
    16
 48
2.0
  5
684
 10
3.079587
 20
0.178491
 30
0.0
 40
0.0
 41
0.0
  0
VERTEX
  8
SCREEN
  6
DCAD_SOLID
 62
    16
 48
2.0
  5
685
 10
3.07388
 20
0.152806
 30
0.0
 40
0.0
 41
0.0
  0
SEQEND
  8
0
  5
686
  0
POLYLINE
  8
SCREEN
  6
DCAD_SOLID
 62
    16
 48
2.0
  5
687
 66
     1
 10
0.0
 20
0.0
 30
0.0
 70
   128
  0
VERTEX
  8
SCREEN
  6
DCAD_SOLID
 62
    16
 48
2.0
  5
688
 10
3.071875
 20
0.152808
 30
0.0
 40
0.0
 41
0.0
  0
VERTEX
  8
SCREEN
  6
DCAD_SOLID
 62
    16
 48
2.0
  5
689
 10
3.077577
 20
0.178492
 30
0.0
 40
0.0
 41
0.0
  0
VERTEX
  8
SCREEN
  6
DCAD_SOLID
 62
    16
 48
2.0
  5
68A
 10
3.077582
 20
0.183901
 30
0.0
 40
0.0
 41
0.0
  0
VERTEX
  8
SCREEN
  6
DCAD_SOLID
 62
    16
 48
2.0
  5
68B
 10
3.073905
 20
0.188859
 30
0.0
 40
0.0
 41
0.0
  0
SEQEND
  8
0
  5
68C
  0
POLYLINE
  8
SCREEN
  6
DCAD_SOLID
 62
    16
 48
2.0
  5
68D
 66
     1
 10
0.0
 20
0.0
 30
0.0
 70
   128
  0
VERTEX
  8
SCREEN
  6
DCAD_SOLID
 62
    16
 48
2.0
  5
68E
 10
3.077572
 20
0.17082
 30
0.0
 40
0.0
 41
0.0
  0
VERTEX
  8
SCREEN
  6
DCAD_SOLID
 62
    16
 48
2.0
  5
68F
 10
3.081593
 20
0.181193
 30
0.0
 40
0.0
 41
0.0
  0
VERTEX
  8
SCREEN
  6
DCAD_SOLID
 62
    16
 48
2.0
  5
690
 10
3.08528
 20
0.186139
 30
0.0
 40
0.0
 41
0.0
  0
VERTEX
  8
SCREEN
  6
DCAD_SOLID
 62
    16
 48
2.0
  5
691
 10
3.089295
 20
0.188848
 30
0.0
 40
0.0
 41
0.0
  0
VERTEX
  8
SCREEN
  6
DCAD_SOLID
 62
    16
 48
2.0
  5
692
 10
3.092974
 20
0.188845
 30
0.0
 40
0.0
 41
0.0
  0
VERTEX
  8
SCREEN
  6
DCAD_SOLID
 62
    16
 48
2.0
  5
693
 10
3.096987
 20
0.186131
 30
0.0
 40
0.0
 41
0.0
  0
VERTEX
  8
SCREEN
  6
DCAD_SOLID
 62
    16
 48
2.0
  5
694
 10
3.09866
 20
0.183886
 30
0.0
 40
0.0
 41
0.0
  0
VERTEX
  8
SCREEN
  6
DCAD_SOLID
 62
    16
 48
2.0
  5
695
 10
3.098655
 20
0.178476
 30
0.0
 40
0.0
 41
0.0
  0
VERTEX
  8
SCREEN
  6
DCAD_SOLID
 62
    16
 48
2.0
  5
696
 10
3.094962
 20
0.163148
 30
0.0
 40
0.0
 41
0.0
  0
VERTEX
  8
SCREEN
  6
DCAD_SOLID
 62
    16
 48
2.0
  5
697
 10
3.094956
 20
0.155488
 30
0.0
 40
0.0
 41
0.0
  0
VERTEX
  8
SCREEN
  6
DCAD_SOLID
 62
    16
 48
2.0
  5
698
 10
3.096962
 20
0.152789
 30
0.0
 40
0.0
 41
0.0
  0
SEQEND
  8
0
  5
699
  0
POLYLINE
  8
SCREEN
  6
DCAD_SOLID
 62
    16
 48
2.0
  5
69A
 66
     1
 10
0.0
 20
0.0
 30
0.0
 70
   128
  0
VERTEX
  8
SCREEN
  6
DCAD_SOLID
 62
    16
 48
2.0
  5
69B
 10
3.106337
 20
0.163139
 30
0.0
 40
0.0
 41
0.0
  0
VERTEX
  8
SCREEN
  6
DCAD_SOLID
 62
    16
 48
2.0
  5
69C
 10
3.104324
 20
0.157732
 30
0.0
 40
0.0
 41
0.0
  0
VERTEX
  8
SCREEN
  6
DCAD_SOLID
 62
    16
 48
2.0
  5
69D
 10
3.10064
 20
0.152787
 30
0.0
 40
0.0
 41
0.0
  0
VERTEX
  8
SCREEN
  6
DCAD_SOLID
 62
    16
 48
2.0
  5
69E
 10
3.094954
 20
0.152791
 30
0.0
 40
0.0
 41
0.0
  0
VERTEX
  8
SCREEN
  6
DCAD_SOLID
 62
    16
 48
2.0
  5
69F
 10
3.092949
 20
0.155489
 30
0.0
 40
0.0
 41
0.0
  0
VERTEX
  8
SCREEN
  6
DCAD_SOLID
 62
    16
 48
2.0
  5
6A0
 10
3.092955
 20
0.16315
 30
0.0
 40
0.0
 41
0.0
  0
VERTEX
  8
SCREEN
  6
DCAD_SOLID
 62
    16
 48
2.0
  5
6A1
 10
3.096981
 20
0.178478
 30
0.0
 40
0.0
 41
0.0
  0
VERTEX
  8
SCREEN
  6
DCAD_SOLID
 62
    16
 48
2.0
  5
6A2
 10
3.096985
 20
0.183888
 30
0.0
 40
0.0
 41
0.0
  0
VERTEX
  8
SCREEN
  6
DCAD_SOLID
 62
    16
 48
2.0
  5
6A3
 10
3.092974
 20
0.188845
 30
0.0
 40
0.0
 41
0.0
  0
SEQEND
  8
0
  5
6A4
  0
POLYLINE
  8
SCREEN
  6
DCAD_SOLID
 62
    16
 48
2.0
  5
6A5
 66
     1
 10
0.0
 20
0.0
 30
0.0
 70
   128
  0
VERTEX
  8
SCREEN
  6
DCAD_SOLID
 62
    16
 48
2.0
  5
6A6
 10
3.056848
 20
0.188871
 30
0.0
 40
0.0
 41
0.0
  0
VERTEX
  8
SCREEN
  6
DCAD_SOLID
 62
    16
 48
2.0
  5
6A7
 10
3.058518
 20
0.186158
 30
0.0
 40
0.0
 41
0.0
  0
VERTEX
  8
SCREEN
  6
DCAD_SOLID
 62
    16
 48
2.0
  5
6A8
 10
3.058514
 20
0.181211
 30
0.0
 40
0.0
 41
0.0
  0
VERTEX
  8
SCREEN
  6
DCAD_SOLID
 62
    16
 48
2.0
  5
6A9
 10
3.056836
 20
0.170836
 30
0.0
 40
0.0
 41
0.0
  0
VERTEX
  8
SCREEN
  6
DCAD_SOLID
 62
    16
 48
2.0
  5
6AA
 10
3.052811
 20
0.152822
 30
0.0
 40
0.0
 41
0.0
  0
SEQEND
  8
0
  5
6AB
  0
POLYLINE
  8
SCREEN
  6
DCAD_SOLID
 62
    16
 48
2.0
  5
6AC
 66
     1
 10
0.0
 20
0.0
 30
0.0
 70
   128
  0
VERTEX
  8
SCREEN
  6
DCAD_SOLID
 62
    16
 48
2.0
  5
6AD
 10
3.054818
 20
0.15282
 30
0.0
 40
0.0
 41
0.0
  0
VERTEX
  8
SCREEN
  6
DCAD_SOLID
 62
    16
 48
2.0
  5
6AE
 10
3.058506
 20
0.170835
 30
0.0
 40
0.0
 41
0.0
  0
VERTEX
  8
SCREEN
  6
DCAD_SOLID
 62
    16
 48
2.0
  5
6AF
 10
3.060524
 20
0.18121
 30
0.0
 40
0.0
 41
0.0
  0
VERTEX
  8
SCREEN
  6
DCAD_SOLID
 62
    16
 48
2.0
  5
6B0
 10
3.060528
 20
0.186156
 30
0.0
 40
0.0
 41
0.0
  0
VERTEX
  8
SCREEN
  6
DCAD_SOLID
 62
    16
 48
2.0
  5
6B1
 10
3.05852
 20
0.188871
 30
0.0
 40
0.0
 41
0.0
  0
VERTEX
  8
SCREEN
  6
DCAD_SOLID
 62
    16
 48
2.0
  5
6B2
 10
3.052838
 20
0.188874
 30
0.0
 40
0.0
 41
0.0
  0
VERTEX
  8
SCREEN
  6
DCAD_SOLID
 62
    16
 48
2.0
  5
6B3
 10
3.049155
 20
0.183922
 30
0.0
 40
0.0
 41
0.0
  0
VERTEX
  8
SCREEN
  6
DCAD_SOLID
 62
    16
 48
2.0
  5
6B4
 10
3.047143
 20
0.178515
 30
0.0
 40
0.0
 41
0.0
  0
SEQEND
  8
0
  5
6B5
  0
POLYLINE
  8
SCREEN
  6
DCAD_SOLID
 62
    16
 48
2.0
  5
6B6
 66
     1
 10
0.0
 20
0.0
 30
0.0
 70
   128
  0
VERTEX
  8
SCREEN
  6
DCAD_SOLID
 62
    16
 48
2.0
  5
6B7
 10
3.129769
 20
0.188818
 30
0.0
 40
0.0
 41
0.0
  0
VERTEX
  8
SCREEN
  6
DCAD_SOLID
 62
    16
 48
2.0
  5
6B8
 10
3.131437
 20
0.186105
 30
0.0
 40
0.0
 41
0.0
  0
VERTEX
  8
SCREEN
  6
DCAD_SOLID
 62
    16
 48
2.0
  5
6B9
 10
3.131434
 20
0.181157
 30
0.0
 40
0.0
 41
0.0
  0
VERTEX
  8
SCREEN
  6
DCAD_SOLID
 62
    16
 48
2.0
  5
6BA
 10
3.129755
 20
0.170782
 30
0.0
 40
0.0
 41
0.0
  0
VERTEX
  8
SCREEN
  6
DCAD_SOLID
 62
    16
 48
2.0
  5
6BB
 10
3.122037
 20
0.134743
 30
0.0
 40
0.0
 41
0.0
  0
SEQEND
  8
0
  5
6BC
  0
POLYLINE
  8
SCREEN
  6
DCAD_SOLID
 62
    16
 48
2.0
  5
6BD
 66
     1
 10
0.0
 20
0.0
 30
0.0
 70
   128
  0
VERTEX
  8
SCREEN
  6
DCAD_SOLID
 62
    16
 48
2.0
  5
6BE
 10
3.123705
 20
0.134742
 30
0.0
 40
0.0
 41
0.0
  0
VERTEX
  8
SCREEN
  6
DCAD_SOLID
 62
    16
 48
2.0
  5
6BF
 10
3.131425
 20
0.170781
 30
0.0
 40
0.0
 41
0.0
  0
VERTEX
  8
SCREEN
  6
DCAD_SOLID
 62
    16
 48
2.0
  5
6C0
 10
3.133441
 20
0.181155
 30
0.0
 40
0.0
 41
0.0
  0
VERTEX
  8
SCREEN
  6
DCAD_SOLID
 62
    16
 48
2.0
  5
6C1
 10
3.133445
 20
0.186104
 30
0.0
 40
0.0
 41
0.0
  0
VERTEX
  8
SCREEN
  6
DCAD_SOLID
 62
    16
 48
2.0
  5
6C2
 10
3.131439
 20
0.188817
 30
0.0
 40
0.0
 41
0.0
  0
VERTEX
  8
SCREEN
  6
DCAD_SOLID
 62
    16
 48
2.0
  5
6C3
 10
3.125753
 20
0.188821
 30
0.0
 40
0.0
 41
0.0
  0
VERTEX
  8
SCREEN
  6
DCAD_SOLID
 62
    16
 48
2.0
  5
6C4
 10
3.122073
 20
0.183868
 30
0.0
 40
0.0
 41
0.0
  0
VERTEX
  8
SCREEN
  6
DCAD_SOLID
 62
    16
 48
2.0
  5
6C5
 10
3.12006
 20
0.178461
 30
0.0
 40
0.0
 41
0.0
  0
SEQEND
  8
0
  5
6C6
  0
POLYLINE
  8
SCREEN
  6
DCAD_SOLID
 62
    16
 48
2.0
  5
6C7
 66
     1
 10
0.0
 20
0.0
 30
0.0
 70
   129
  0
VERTEX
  8
SCREEN
  6
DCAD_SOLID
 62
    16
 48
2.0
  5
6C8
 10
3.131425
 20
0.170781
 30
0.0
 40
0.0
 41
0.0
  0
VERTEX
  8
SCREEN
  6
DCAD_SOLID
 62
    16
 48
2.0
  5
6C9
 10
3.13344
 20
0.178451
 30
0.0
 40
0.0
 41
0.0
  0
VERTEX
  8
SCREEN
  6
DCAD_SOLID
 62
    16
 48
2.0
  5
6CA
 10
3.137125
 20
0.186101
 30
0.0
 40
0.0
 41
0.0
  0
VERTEX
  8
SCREEN
  6
DCAD_SOLID
 62
    16
 48
2.0
  5
6CB
 10
3.14114
 20
0.18881
 30
0.0
 40
0.0
 41
0.0
  0
VERTEX
  8
SCREEN
  6
DCAD_SOLID
 62
    16
 48
2.0
  5
6CC
 10
3.14482
 20
0.188808
 30
0.0
 40
0.0
 41
0.0
  0
VERTEX
  8
SCREEN
  6
DCAD_SOLID
 62
    16
 48
2.0
  5
6CD
 10
3.148832
 20
0.186092
 30
0.0
 40
0.0
 41
0.0
  0
VERTEX
  8
SCREEN
  6
DCAD_SOLID
 62
    16
 48
2.0
  5
6CE
 10
3.150503
 20
0.183848
 30
0.0
 40
0.0
 41
0.0
  0
VERTEX
  8
SCREEN
  6
DCAD_SOLID
 62
    16
 48
2.0
  5
6CF
 10
3.152505
 20
0.178437
 30
0.0
 40
0.0
 41
0.0
  0
VERTEX
  8
SCREEN
  6
DCAD_SOLID
 62
    16
 48
2.0
  5
6D0
 10
3.152501
 20
0.170766
 30
0.0
 40
0.0
 41
0.0
  0
VERTEX
  8
SCREEN
  6
DCAD_SOLID
 62
    16
 48
2.0
  5
6D1
 10
3.150488
 20
0.163107
 30
0.0
 40
0.0
 41
0.0
  0
VERTEX
  8
SCREEN
  6
DCAD_SOLID
 62
    16
 48
2.0
  5
6D2
 10
3.146803
 20
0.15545
 30
0.0
 40
0.0
 41
0.0
  0
VERTEX
  8
SCREEN
  6
DCAD_SOLID
 62
    16
 48
2.0
  5
6D3
 10
3.141114
 20
0.152758
 30
0.0
 40
0.0
 41
0.0
  0
VERTEX
  8
SCREEN
  6
DCAD_SOLID
 62
    16
 48
2.0
  5
6D4
 10
3.137101
 20
0.152761
 30
0.0
 40
0.0
 41
0.0
  0
VERTEX
  8
SCREEN
  6
DCAD_SOLID
 62
    16
 48
2.0
  5
6D5
 10
3.133423
 20
0.155459
 30
0.0
 40
0.0
 41
0.0
  0
VERTEX
  8
SCREEN
  6
DCAD_SOLID
 62
    16
 48
2.0
  5
6D6
 10
3.131421
 20
0.163121
 30
0.0
 40
0.0
 41
0.0
  0
VERTEX
  8
SCREEN
  6
DCAD_SOLID
 62
    16
 48
2.0
  5
6D7
 10
3.131425
 20
0.170781
 30
0.0
 40
0.0
 41
0.0
  0
SEQEND
  8
0
  5
6D8
  0
POLYLINE
  8
SCREEN
  6
DCAD_SOLID
 62
    16
 48
2.0
  5
6D9
 66
     1
 10
0.0
 20
0.0
 30
0.0
 70
   128
  0
VERTEX
  8
SCREEN
  6
DCAD_SOLID
 62
    16
 48
2.0
  5
6DA
 10
3.141114
 20
0.152758
 30
0.0
 40
0.0
 41
0.0
  0
VERTEX
  8
SCREEN
  6
DCAD_SOLID
 62
    16
 48
2.0
  5
6DB
 10
3.144796
 20
0.155452
 30
0.0
 40
0.0
 41
0.0
  0
VERTEX
  8
SCREEN
  6
DCAD_SOLID
 62
    16
 48
2.0
  5
6DC
 10
3.148815
 20
0.163108
 30
0.0
 40
0.0
 41
0.0
  0
VERTEX
  8
SCREEN
  6
DCAD_SOLID
 62
    16
 48
2.0
  5
6DD
 10
3.150493
 20
0.170767
 30
0.0
 40
0.0
 41
0.0
  0
VERTEX
  8
SCREEN
  6
DCAD_SOLID
 62
    16
 48
2.0
  5
6DE
 10
3.150501
 20
0.181143
 30
0.0
 40
0.0
 41
0.0
  0
VERTEX
  8
SCREEN
  6
DCAD_SOLID
 62
    16
 48
2.0
  5
6DF
 10
3.148832
 20
0.186092
 30
0.0
 40
0.0
 41
0.0
  0
SEQEND
  8
0
  5
6E0
  0
POLYLINE
  8
SCREEN
  6
DCAD_SOLID
 62
    16
 48
2.0
  5
6E1
 66
     1
 10
0.0
 20
0.0
 30
0.0
 70
   128
  0
VERTEX
  8
SCREEN
  6
DCAD_SOLID
 62
    16
 48
2.0
  5
6E2
 10
3.1873
 20
0.188776
 30
0.0
 40
0.0
 41
0.0
  0
VERTEX
  8
SCREEN
  6
DCAD_SOLID
 62
    16
 48
2.0
  5
6E3
 10
3.183611
 20
0.170743
 30
0.0
 40
0.0
 41
0.0
  0
VERTEX
  8
SCREEN
  6
DCAD_SOLID
 62
    16
 48
2.0
  5
6E4
 10
3.181597
 20
0.160377
 30
0.0
 40
0.0
 41
0.0
  0
VERTEX
  8
SCREEN
  6
DCAD_SOLID
 62
    16
 48
2.0
  5
6E5
 10
3.181593
 20
0.155425
 30
0.0
 40
0.0
 41
0.0
  0
VERTEX
  8
SCREEN
  6
DCAD_SOLID
 62
    16
 48
2.0
  5
6E6
 10
3.183598
 20
0.152726
 30
0.0
 40
0.0
 41
0.0
  0
VERTEX
  8
SCREEN
  6
DCAD_SOLID
 62
    16
 48
2.0
  5
6E7
 10
3.18928
 20
0.152722
 30
0.0
 40
0.0
 41
0.0
  0
VERTEX
  8
SCREEN
  6
DCAD_SOLID
 62
    16
 48
2.0
  5
6E8
 10
3.193301
 20
0.157667
 30
0.0
 40
0.0
 41
0.0
  0
VERTEX
  8
SCREEN
  6
DCAD_SOLID
 62
    16
 48
2.0
  5
6E9
 10
3.194973
 20
0.163075
 30
0.0
 40
0.0
 41
0.0
  0
SEQEND
  8
0
  5
6EA
  0
POLYLINE
  8
SCREEN
  6
DCAD_SOLID
 62
    16
 48
2.0
  5
6EB
 66
     1
 10
0.0
 20
0.0
 30
0.0
 70
   128
  0
VERTEX
  8
SCREEN
  6
DCAD_SOLID
 62
    16
 48
2.0
  5
6EC
 10
3.185605
 20
0.152724
 30
0.0
 40
0.0
 41
0.0
  0
VERTEX
  8
SCREEN
  6
DCAD_SOLID
 62
    16
 48
2.0
  5
6ED
 10
3.183601
 20
0.155423
 30
0.0
 40
0.0
 41
0.0
  0
VERTEX
  8
SCREEN
  6
DCAD_SOLID
 62
    16
 48
2.0
  5
6EE
 10
3.183604
 20
0.160375
 30
0.0
 40
0.0
 41
0.0
  0
VERTEX
  8
SCREEN
  6
DCAD_SOLID
 62
    16
 48
2.0
  5
6EF
 10
3.185618
 20
0.170741
 30
0.0
 40
0.0
 41
0.0
  0
VERTEX
  8
SCREEN
  6
DCAD_SOLID
 62
    16
 48
2.0
  5
6F0
 10
3.189306
 20
0.188775
 30
0.0
 40
0.0
 41
0.0
  0
SEQEND
  8
0
  5
6F1
  0
POLYLINE
  8
SCREEN
  6
DCAD_SOLID
 62
    16
 48
2.0
  5
6F2
 66
     1
 10
0.0
 20
0.0
 30
0.0
 70
   129
  0
VERTEX
  8
SCREEN
  6
DCAD_SOLID
 62
    16
 48
2.0
  5
6F3
 10
3.183611
 20
0.170743
 30
0.0
 40
0.0
 41
0.0
  0
VERTEX
  8
SCREEN
  6
DCAD_SOLID
 62
    16
 48
2.0
  5
6F4
 10
3.183617
 20
0.178414
 30
0.0
 40
0.0
 41
0.0
  0
VERTEX
  8
SCREEN
  6
DCAD_SOLID
 62
    16
 48
2.0
  5
6F5
 10
3.181615
 20
0.186069
 30
0.0
 40
0.0
 41
0.0
  0
VERTEX
  8
SCREEN
  6
DCAD_SOLID
 62
    16
 48
2.0
  5
6F6
 10
3.177934
 20
0.188783
 30
0.0
 40
0.0
 41
0.0
  0
VERTEX
  8
SCREEN
  6
DCAD_SOLID
 62
    16
 48
2.0
  5
6F7
 10
3.173926
 20
0.188786
 30
0.0
 40
0.0
 41
0.0
  0
VERTEX
  8
SCREEN
  6
DCAD_SOLID
 62
    16
 48
2.0
  5
6F8
 10
3.168235
 20
0.186078
 30
0.0
 40
0.0
 41
0.0
  0
VERTEX
  8
SCREEN
  6
DCAD_SOLID
 62
    16
 48
2.0
  5
6F9
 10
3.16455
 20
0.178429
 30
0.0
 40
0.0
 41
0.0
  0
VERTEX
  8
SCREEN
  6
DCAD_SOLID
 62
    16
 48
2.0
  5
6FA
 10
3.162537
 20
0.170758
 30
0.0
 40
0.0
 41
0.0
  0
VERTEX
  8
SCREEN
  6
DCAD_SOLID
 62
    16
 48
2.0
  5
6FB
 10
3.162531
 20
0.163098
 30
0.0
 40
0.0
 41
0.0
  0
VERTEX
  8
SCREEN
  6
DCAD_SOLID
 62
    16
 48
2.0
  5
6FC
 10
3.164536
 20
0.157688
 30
0.0
 40
0.0
 41
0.0
  0
VERTEX
  8
SCREEN
  6
DCAD_SOLID
 62
    16
 48
2.0
  5
6FD
 10
3.166538
 20
0.155436
 30
0.0
 40
0.0
 41
0.0
  0
VERTEX
  8
SCREEN
  6
DCAD_SOLID
 62
    16
 48
2.0
  5
6FE
 10
3.170216
 20
0.152736
 30
0.0
 40
0.0
 41
0.0
  0
VERTEX
  8
SCREEN
  6
DCAD_SOLID
 62
    16
 48
2.0
  5
6FF
 10
3.173899
 20
0.152733
 30
0.0
 40
0.0
 41
0.0
  0
VERTEX
  8
SCREEN
  6
DCAD_SOLID
 62
    16
 48
2.0
  5
700
 10
3.17791
 20
0.155427
 30
0.0
 40
0.0
 41
0.0
  0
VERTEX
  8
SCREEN
  6
DCAD_SOLID
 62
    16
 48
2.0
  5
701
 10
3.181599
 20
0.163084
 30
0.0
 40
0.0
 41
0.0
  0
VERTEX
  8
SCREEN
  6
DCAD_SOLID
 62
    16
 48
2.0
  5
702
 10
3.183611
 20
0.170743
 30
0.0
 40
0.0
 41
0.0
  0
SEQEND
  8
0
  5
703
  0
POLYLINE
  8
SCREEN
  6
DCAD_SOLID
 62
    16
 48
2.0
  5
704
 66
     1
 10
0.0
 20
0.0
 30
0.0
 70
   128
  0
VERTEX
  8
SCREEN
  6
DCAD_SOLID
 62
    16
 48
2.0
  5
705
 10
3.173926
 20
0.188786
 30
0.0
 40
0.0
 41
0.0
  0
VERTEX
  8
SCREEN
  6
DCAD_SOLID
 62
    16
 48
2.0
  5
706
 10
3.170241
 20
0.186076
 30
0.0
 40
0.0
 41
0.0
  0
VERTEX
  8
SCREEN
  6
DCAD_SOLID
 62
    16
 48
2.0
  5
707
 10
3.166555
 20
0.178427
 30
0.0
 40
0.0
 41
0.0
  0
VERTEX
  8
SCREEN
  6
DCAD_SOLID
 62
    16
 48
2.0
  5
708
 10
3.164545
 20
0.170757
 30
0.0
 40
0.0
 41
0.0
  0
VERTEX
  8
SCREEN
  6
DCAD_SOLID
 62
    16
 48
2.0
  5
709
 10
3.164538
 20
0.160389
 30
0.0
 40
0.0
 41
0.0
  0
VERTEX
  8
SCREEN
  6
DCAD_SOLID
 62
    16
 48
2.0
  5
70A
 10
3.166538
 20
0.155436
 30
0.0
 40
0.0
 41
0.0
  0
SEQEND
  8
0
  5
70B
  0
POLYLINE
  8
SCREEN
  6
DCAD_SOLID
 62
    16
 48
2.0
  5
70C
 66
     1
 10
0.0
 20
0.0
 30
0.0
 70
   128
  0
VERTEX
  8
SCREEN
  6
DCAD_SOLID
 62
    16
 48
2.0
  5
70D
 10
3.205021
 20
0.178399
 30
0.0
 40
0.0
 41
0.0
  0
VERTEX
  8
SCREEN
  6
DCAD_SOLID
 62
    16
 48
2.0
  5
70E
 10
3.207034
 20
0.183807
 30
0.0
 40
0.0
 41
0.0
  0
VERTEX
  8
SCREEN
  6
DCAD_SOLID
 62
    16
 48
2.0
  5
70F
 10
3.210715
 20
0.188759
 30
0.0
 40
0.0
 41
0.0
  0
VERTEX
  8
SCREEN
  6
DCAD_SOLID
 62
    16
 48
2.0
  5
710
 10
3.216403
 20
0.188755
 30
0.0
 40
0.0
 41
0.0
  0
VERTEX
  8
SCREEN
  6
DCAD_SOLID
 62
    16
 48
2.0
  5
711
 10
3.218408
 20
0.186041
 30
0.0
 40
0.0
 41
0.0
  0
VERTEX
  8
SCREEN
  6
DCAD_SOLID
 62
    16
 48
2.0
  5
712
 10
3.218404
 20
0.181093
 30
0.0
 40
0.0
 41
0.0
  0
VERTEX
  8
SCREEN
  6
DCAD_SOLID
 62
    16
 48
2.0
  5
713
 10
3.216388
 20
0.170719
 30
0.0
 40
0.0
 41
0.0
  0
VERTEX
  8
SCREEN
  6
DCAD_SOLID
 62
    16
 48
2.0
  5
714
 10
3.212695
 20
0.152705
 30
0.0
 40
0.0
 41
0.0
  0
SEQEND
  8
0
  5
715
  0
POLYLINE
  8
SCREEN
  6
DCAD_SOLID
 62
    16
 48
2.0
  5
716
 66
     1
 10
0.0
 20
0.0
 30
0.0
 70
   128
  0
VERTEX
  8
SCREEN
  6
DCAD_SOLID
 62
    16
 48
2.0
  5
717
 10
3.210688
 20
0.152706
 30
0.0
 40
0.0
 41
0.0
  0
VERTEX
  8
SCREEN
  6
DCAD_SOLID
 62
    16
 48
2.0
  5
718
 10
3.214715
 20
0.17072
 30
0.0
 40
0.0
 41
0.0
  0
VERTEX
  8
SCREEN
  6
DCAD_SOLID
 62
    16
 48
2.0
  5
719
 10
3.216397
 20
0.181095
 30
0.0
 40
0.0
 41
0.0
  0
VERTEX
  8
SCREEN
  6
DCAD_SOLID
 62
    16
 48
2.0
  5
71A
 10
3.2164
 20
0.186043
 30
0.0
 40
0.0
 41
0.0
  0
VERTEX
  8
SCREEN
  6
DCAD_SOLID
 62
    16
 48
2.0
  5
71B
 10
3.21473
 20
0.188756
 30
0.0
 40
0.0
 41
0.0
  0
SEQEND
  8
0
  5
71C
  0
POLYLINE
  8
SCREEN
  6
DCAD_SOLID
 62
    16
 48
2.0
  5
71D
 66
     1
 10
0.0
 20
0.0
 30
0.0
 70
   128
  0
VERTEX
  8
SCREEN
  6
DCAD_SOLID
 62
    16
 48
2.0
  5
71E
 10
3.216388
 20
0.170719
 30
0.0
 40
0.0
 41
0.0
  0
VERTEX
  8
SCREEN
  6
DCAD_SOLID
 62
    16
 48
2.0
  5
71F
 10
3.220409
 20
0.181092
 30
0.0
 40
0.0
 41
0.0
  0
VERTEX
  8
SCREEN
  6
DCAD_SOLID
 62
    16
 48
2.0
  5
720
 10
3.224093
 20
0.186037
 30
0.0
 40
0.0
 41
0.0
  0
VERTEX
  8
SCREEN
  6
DCAD_SOLID
 62
    16
 48
2.0
  5
721
 10
3.228109
 20
0.188747
 30
0.0
 40
0.0
 41
0.0
  0
VERTEX
  8
SCREEN
  6
DCAD_SOLID
 62
    16
 48
2.0
  5
722
 10
3.231791
 20
0.188744
 30
0.0
 40
0.0
 41
0.0
  0
VERTEX
  8
SCREEN
  6
DCAD_SOLID
 62
    16
 48
2.0
  5
723
 10
3.235467
 20
0.186029
 30
0.0
 40
0.0
 41
0.0
  0
VERTEX
  8
SCREEN
  6
DCAD_SOLID
 62
    16
 48
2.0
  5
724
 10
3.237473
 20
0.183785
 30
0.0
 40
0.0
 41
0.0
  0
VERTEX
  8
SCREEN
  6
DCAD_SOLID
 62
    16
 48
2.0
  5
725
 10
3.237469
 20
0.178375
 30
0.0
 40
0.0
 41
0.0
  0
VERTEX
  8
SCREEN
  6
DCAD_SOLID
 62
    16
 48
2.0
  5
726
 10
3.233778
 20
0.163046
 30
0.0
 40
0.0
 41
0.0
  0
VERTEX
  8
SCREEN
  6
DCAD_SOLID
 62
    16
 48
2.0
  5
727
 10
3.233773
 20
0.155386
 30
0.0
 40
0.0
 41
0.0
  0
VERTEX
  8
SCREEN
  6
DCAD_SOLID
 62
    16
 48
2.0
  5
728
 10
3.235444
 20
0.152688
 30
0.0
 40
0.0
 41
0.0
  0
SEQEND
  8
0
  5
729
  0
POLYLINE
  8
SCREEN
  6
DCAD_SOLID
 62
    16
 48
2.0
  5
72A
 66
     1
 10
0.0
 20
0.0
 30
0.0
 70
   128
  0
VERTEX
  8
SCREEN
  6
DCAD_SOLID
 62
    16
 48
2.0
  5
72B
 10
3.245152
 20
0.163037
 30
0.0
 40
0.0
 41
0.0
  0
VERTEX
  8
SCREEN
  6
DCAD_SOLID
 62
    16
 48
2.0
  5
72C
 10
3.243142
 20
0.15763
 30
0.0
 40
0.0
 41
0.0
  0
VERTEX
  8
SCREEN
  6
DCAD_SOLID
 62
    16
 48
2.0
  5
72D
 10
3.239459
 20
0.152685
 30
0.0
 40
0.0
 41
0.0
  0
VERTEX
  8
SCREEN
  6
DCAD_SOLID
 62
    16
 48
2.0
  5
72E
 10
3.23377
 20
0.152689
 30
0.0
 40
0.0
 41
0.0
  0
VERTEX
  8
SCREEN
  6
DCAD_SOLID
 62
    16
 48
2.0
  5
72F
 10
3.231766
 20
0.155388
 30
0.0
 40
0.0
 41
0.0
  0
VERTEX
  8
SCREEN
  6
DCAD_SOLID
 62
    16
 48
2.0
  5
730
 10
3.231772
 20
0.163048
 30
0.0
 40
0.0
 41
0.0
  0
VERTEX
  8
SCREEN
  6
DCAD_SOLID
 62
    16
 48
2.0
  5
731
 10
3.235463
 20
0.178376
 30
0.0
 40
0.0
 41
0.0
  0
VERTEX
  8
SCREEN
  6
DCAD_SOLID
 62
    16
 48
2.0
  5
732
 10
3.235466
 20
0.183786
 30
0.0
 40
0.0
 41
0.0
  0
VERTEX
  8
SCREEN
  6
DCAD_SOLID
 62
    16
 48
2.0
  5
733
 10
3.231791
 20
0.188744
 30
0.0
 40
0.0
 41
0.0
  0
SEQEND
  8
0
  5
734
  0
POLYLINE
  8
SCREEN
  6
DCAD_SOLID
 62
    16
 48
2.0
  5
735
 66
     1
 10
0.0
 20
0.0
 30
0.0
 70
   128
  0
VERTEX
  8
SCREEN
  6
DCAD_SOLID
 62
    16
 48
2.0
  5
736
 10
3.255195
 20
0.178362
 30
0.0
 40
0.0
 41
0.0
  0
VERTEX
  8
SCREEN
  6
DCAD_SOLID
 62
    16
 48
2.0
  5
737
 10
3.257207
 20
0.183769
 30
0.0
 40
0.0
 41
0.0
  0
VERTEX
  8
SCREEN
  6
DCAD_SOLID
 62
    16
 48
2.0
  5
738
 10
3.26089
 20
0.188723
 30
0.0
 40
0.0
 41
0.0
  0
VERTEX
  8
SCREEN
  6
DCAD_SOLID
 62
    16
 48
2.0
  5
739
 10
3.266576
 20
0.188718
 30
0.0
 40
0.0
 41
0.0
  0
VERTEX
  8
SCREEN
  6
DCAD_SOLID
 62
    16
 48
2.0
  5
73A
 10
3.268584
 20
0.186005
 30
0.0
 40
0.0
 41
0.0
  0
VERTEX
  8
SCREEN
  6
DCAD_SOLID
 62
    16
 48
2.0
  5
73B
 10
3.268577
 20
0.178351
 30
0.0
 40
0.0
 41
0.0
  0
VERTEX
  8
SCREEN
  6
DCAD_SOLID
 62
    16
 48
2.0
  5
73C
 10
3.264884
 20
0.163024
 30
0.0
 40
0.0
 41
0.0
  0
VERTEX
  8
SCREEN
  6
DCAD_SOLID
 62
    16
 48
2.0
  5
73D
 10
3.264881
 20
0.157615
 30
0.0
 40
0.0
 41
0.0
  0
VERTEX
  8
SCREEN
  6
DCAD_SOLID
 62
    16
 48
2.0
  5
73E
 10
3.268559
 20
0.152664
 30
0.0
 40
0.0
 41
0.0
  0
SEQEND
  8
0
  5
73F
  0
POLYLINE
  8
SCREEN
  6
DCAD_SOLID
 62
    16
 48
2.0
  5
740
 66
     1
 10
0.0
 20
0.0
 30
0.0
 70
   128
  0
VERTEX
  8
SCREEN
  6
DCAD_SOLID
 62
    16
 48
2.0
  5
741
 10
3.260852
 20
0.1396
 30
0.0
 40
0.0
 41
0.0
  0
VERTEX
  8
SCREEN
  6
DCAD_SOLID
 62
    16
 48
2.0
  5
742
 10
3.262862
 20
0.1423
 30
0.0
 40
0.0
 41
0.0
  0
VERTEX
  8
SCREEN
  6
DCAD_SOLID
 62
    16
 48
2.0
  5
743
 10
3.260857
 20
0.145002
 30
0.0
 40
0.0
 41
0.0
  0
VERTEX
  8
SCREEN
  6
DCAD_SOLID
 62
    16
 48
2.0
  5
744
 10
3.258847
 20
0.142303
 30
0.0
 40
0.0
 41
0.0
  0
VERTEX
  8
SCREEN
  6
DCAD_SOLID
 62
    16
 48
2.0
  5
745
 10
3.258845
 20
0.139602
 30
0.0
 40
0.0
 41
0.0
  0
VERTEX
  8
SCREEN
  6
DCAD_SOLID
 62
    16
 48
2.0
  5
746
 10
3.260851
 20
0.137345
 30
0.0
 40
0.0
 41
0.0
  0
VERTEX
  8
SCREEN
  6
DCAD_SOLID
 62
    16
 48
2.0
  5
747
 10
3.264864
 20
0.134639
 30
0.0
 40
0.0
 41
0.0
  0
VERTEX
  8
SCREEN
  6
DCAD_SOLID
 62
    16
 48
2.0
  5
748
 10
3.27055
 20
0.134634
 30
0.0
 40
0.0
 41
0.0
  0
VERTEX
  8
SCREEN
  6
DCAD_SOLID
 62
    16
 48
2.0
  5
749
 10
3.27624
 20
0.137334
 30
0.0
 40
0.0
 41
0.0
  0
VERTEX
  8
SCREEN
  6
DCAD_SOLID
 62
    16
 48
2.0
  5
74A
 10
3.279926
 20
0.144988
 30
0.0
 40
0.0
 41
0.0
  0
VERTEX
  8
SCREEN
  6
DCAD_SOLID
 62
    16
 48
2.0
  5
74B
 10
3.281939
 20
0.152654
 30
0.0
 40
0.0
 41
0.0
  0
VERTEX
  8
SCREEN
  6
DCAD_SOLID
 62
    16
 48
2.0
  5
74C
 10
3.289657
 20
0.188701
 30
0.0
 40
0.0
 41
0.0
  0
SEQEND
  8
0
  5
74D
  0
POLYLINE
  8
SCREEN
  6
DCAD_SOLID
 62
    16
 48
2.0
  5
74E
 66
     1
 10
0.0
 20
0.0
 30
0.0
 70
   128
  0
VERTEX
  8
SCREEN
  6
DCAD_SOLID
 62
    16
 48
2.0
  5
74F
 10
3.287652
 20
0.188703
 30
0.0
 40
0.0
 41
0.0
  0
VERTEX
  8
SCREEN
  6
DCAD_SOLID
 62
    16
 48
2.0
  5
750
 10
3.279932
 20
0.152656
 30
0.0
 40
0.0
 41
0.0
  0
VERTEX
  8
SCREEN
  6
DCAD_SOLID
 62
    16
 48
2.0
  5
751
 10
3.27825
 20
0.144989
 30
0.0
 40
0.0
 41
0.0
  0
VERTEX
  8
SCREEN
  6
DCAD_SOLID
 62
    16
 48
2.0
  5
752
 10
3.274233
 20
0.137336
 30
0.0
 40
0.0
 41
0.0
  0
VERTEX
  8
SCREEN
  6
DCAD_SOLID
 62
    16
 48
2.0
  5
753
 10
3.27055
 20
0.134634
 30
0.0
 40
0.0
 41
0.0
  0
SEQEND
  8
0
  5
754
  0
POLYLINE
  8
SCREEN
  6
DCAD_SOLID
 62
    16
 48
2.0
  5
755
 66
     1
 10
0.0
 20
0.0
 30
0.0
 70
   128
  0
VERTEX
  8
SCREEN
  6
DCAD_SOLID
 62
    16
 48
2.0
  5
756
 10
3.283957
 20
0.17067
 30
0.0
 40
0.0
 41
0.0
  0
VERTEX
  8
SCREEN
  6
DCAD_SOLID
 62
    16
 48
2.0
  5
757
 10
3.279937
 20
0.160304
 30
0.0
 40
0.0
 41
0.0
  0
VERTEX
  8
SCREEN
  6
DCAD_SOLID
 62
    16
 48
2.0
  5
758
 10
3.276252
 20
0.155355
 30
0.0
 40
0.0
 41
0.0
  0
VERTEX
  8
SCREEN
  6
DCAD_SOLID
 62
    16
 48
2.0
  5
759
 10
3.272234
 20
0.152661
 30
0.0
 40
0.0
 41
0.0
  0
VERTEX
  8
SCREEN
  6
DCAD_SOLID
 62
    16
 48
2.0
  5
75A
 10
3.268559
 20
0.152664
 30
0.0
 40
0.0
 41
0.0
  0
VERTEX
  8
SCREEN
  6
DCAD_SOLID
 62
    16
 48
2.0
  5
75B
 10
3.26488
 20
0.155363
 30
0.0
 40
0.0
 41
0.0
  0
VERTEX
  8
SCREEN
  6
DCAD_SOLID
 62
    16
 48
2.0
  5
75C
 10
3.262872
 20
0.157616
 30
0.0
 40
0.0
 41
0.0
  0
VERTEX
  8
SCREEN
  6
DCAD_SOLID
 62
    16
 48
2.0
  5
75D
 10
3.262877
 20
0.163025
 30
0.0
 40
0.0
 41
0.0
  0
VERTEX
  8
SCREEN
  6
DCAD_SOLID
 62
    16
 48
2.0
  5
75E
 10
3.26657
 20
0.178353
 30
0.0
 40
0.0
 41
0.0
  0
VERTEX
  8
SCREEN
  6
DCAD_SOLID
 62
    16
 48
2.0
  5
75F
 10
3.266575
 20
0.186006
 30
0.0
 40
0.0
 41
0.0
  0
VERTEX
  8
SCREEN
  6
DCAD_SOLID
 62
    16
 48
2.0
  5
760
 10
3.264904
 20
0.188719
 30
0.0
 40
0.0
 41
0.0
  0
SEQEND
  8
0
  5
761
  0
POLYLINE
  8
SCREEN
  6
DCAD_SOLID
 62
    16
 48
2.0
  5
762
 66
     1
 10
0.0
 20
0.0
 30
0.0
 70
   128
  0
VERTEX
  8
SCREEN
  6
DCAD_SOLID
 62
    16
 48
2.0
  5
763
 10
3.136993
 20
0.930256
 30
0.0
 40
0.0
 41
0.0
  0
VERTEX
  8
SCREEN
  6
DCAD_SOLID
 62
    16
 48
2.0
  5
764
 10
3.136993
 20
0.878038
 30
0.0
 40
0.0
 41
0.0
  0
SEQEND
  8
0
  5
765
  0
POLYLINE
  8
SCREEN
  6
DCAD_SOLID
 62
    16
 48
2.0
  5
766
 66
     1
 10
0.0
 20
0.0
 30
0.0
 70
   128
  0
VERTEX
  8
SCREEN
  6
DCAD_SOLID
 62
    16
 48
2.0
  5
767
 10
3.170329
 20
0.930256
 30
0.0
 40
0.0
 41
0.0
  0
VERTEX
  8
SCREEN
  6
DCAD_SOLID
 62
    16
 48
2.0
  5
768
 10
3.170329
 20
0.878038
 30
0.0
 40
0.0
 41
0.0
  0
SEQEND
  8
0
  5
769
  0
POLYLINE
  8
SCREEN
  6
DCAD_SOLID
 62
    16
 48
2.0
  5
76A
 66
     1
 10
0.0
 20
0.0
 30
0.0
 70
   128
  0
VERTEX
  8
SCREEN
  6
DCAD_SOLID
 62
    16
 48
2.0
  5
76B
 10
3.136993
 20
0.905392
 30
0.0
 40
0.0
 41
0.0
  0
VERTEX
  8
SCREEN
  6
DCAD_SOLID
 62
    16
 48
2.0
  5
76C
 10
3.170329
 20
0.905392
 30
0.0
 40
0.0
 41
0.0
  0
SEQEND
  8
0
  5
76D
  0
POLYLINE
  8
SCREEN
  6
DCAD_SOLID
 62
    16
 48
2.0
  5
76E
 66
     1
 10
0.0
 20
0.0
 30
0.0
 70
   129
  0
VERTEX
  8
SCREEN
  6
DCAD_SOLID
 62
    16
 48
2.0
  5
76F
 10
3.651459
 20
-0.11033
 30
0.0
 40
0.0
 41
0.0
  0
VERTEX
  8
SCREEN
  6
DCAD_SOLID
 62
    16
 48
2.0
  5
770
 10
3.651459
 20
1.089671
 30
0.0
 40
0.0
 41
0.0
  0
VERTEX
  8
SCREEN
  6
DCAD_SOLID
 62
    16
 48
2.0
  5
771
 10
2.651459
 20
1.089671
 30
0.0
 40
0.0
 41
0.0
  0
VERTEX
  8
SCREEN
  6
DCAD_SOLID
 62
    16
 48
2.0
  5
772
 10
2.651459
 20
-0.11033
 30
0.0
 40
0.0
 41
0.0
  0
VERTEX
  8
SCREEN
  6
DCAD_SOLID
 62
    16
 48
2.0
  5
773
 10
3.651459
 20
-0.11033
 30
0.0
 40
0.0
 41
0.0
  0
SEQEND
  8
0
  5
774
  0
POLYLINE
  8
SCREEN
  6
DCAD_SOLID
 62
    16
 48
2.0
  5
775
 66
     1
 10
0.0
 20
0.0
 30
0.0
 70
   129
  0
VERTEX
  8
SCREEN
  6
DCAD_SOLID
 62
    16
 48
2.0
  5
776
 10
2.844455
 20
0.71799
 30
0.0
 40
0.0
 41
0.0
  0
VERTEX
  8
SCREEN
  6
DCAD_SOLID
 62
    16
 48
2.0
  5
777
 10
2.644455
 20
0.71799
 30
0.0
 40
0.0
 41
0.0
  0
VERTEX
  8
SCREEN
  6
DCAD_SOLID
 62
    16
 48
2.0
  5
778
 10
2.644455
 20
0.24299
 30
0.0
 40
0.0
 41
0.0
  0
VERTEX
  8
SCREEN
  6
DCAD_SOLID
 62
    16
 48
2.0
  5
779
 10
2.844455
 20
0.24299
 30
0.0
 40
0.0
 41
0.0
  0
VERTEX
  8
SCREEN
  6
DCAD_SOLID
 62
    16
 48
2.0
  5
77A
 10
2.844455
 20
0.71799
 30
0.0
 40
0.0
 41
0.0
  0
SEQEND
  8
0
  5
77B
  0
POLYLINE
  8
SCREEN
  6
DCAD_SOLID
 62
    16
 48
2.0
  5
77C
 66
     1
 10
0.0
 20
0.0
 30
0.0
 70
   129
  0
VERTEX
  8
SCREEN
  6
DCAD_SOLID
 62
    16
 48
2.0
  5
77D
 10
3.436933
 20
0.597302
 30
0.0
 40
0.0
 41
0.0
  0
VERTEX
  8
SCREEN
  6
DCAD_SOLID
 62
    16
 48
2.0
  5
77E
 10
3.636934
 20
0.597302
 30
0.0
 40
0.0
 41
0.0
  0
VERTEX
  8
SCREEN
  6
DCAD_SOLID
 62
    16
 48
2.0
  5
77F
 10
3.636934
 20
1.072302
 30
0.0
 40
0.0
 41
0.0
  0
VERTEX
  8
SCREEN
  6
DCAD_SOLID
 62
    16
 48
2.0
  5
780
 10
3.436934
 20
1.072302
 30
0.0
 40
0.0
 41
0.0
  0
VERTEX
  8
SCREEN
  6
DCAD_SOLID
 62
    16
 48
2.0
  5
781
 10
3.436933
 20
0.597302
 30
0.0
 40
0.0
 41
0.0
  0
SEQEND
  8
0
  5
782
  0
POLYLINE
  8
SCREEN
  6
DCAD_SOLID
 62
    16
 48
2.0
  5
783
 66
     1
 10
0.0
 20
0.0
 30
0.0
 70
   129
  0
VERTEX
  8
SCREEN
  6
DCAD_SOLID
 62
    16
 48
2.0
  5
784
 10
3.437196
 20
-0.094762
 30
0.0
 40
0.0
 41
0.0
  0
VERTEX
  8
SCREEN
  6
DCAD_SOLID
 62
    16
 48
2.0
  5
785
 10
3.637197
 20
-0.094762
 30
0.0
 40
0.0
 41
0.0
  0
VERTEX
  8
SCREEN
  6
DCAD_SOLID
 62
    16
 48
2.0
  5
786
 10
3.637197
 20
0.380238
 30
0.0
 40
0.0
 41
0.0
  0
VERTEX
  8
SCREEN
  6
DCAD_SOLID
 62
    16
 48
2.0
  5
787
 10
3.437197
 20
0.380238
 30
0.0
 40
0.0
 41
0.0
  0
VERTEX
  8
SCREEN
  6
DCAD_SOLID
 62
    16
 48
2.0
  5
788
 10
3.437196
 20
-0.094762
 30
0.0
 40
0.0
 41
0.0
  0
SEQEND
  8
0
  5
789
  0
POLYLINE
  8
SCREEN
  6
DCAD_SOLID
 62
    16
 48
2.0
  5
78A
 66
     1
 10
0.0
 20
0.0
 30
0.0
 70
   128
  0
VERTEX
  8
SCREEN
  6
DCAD_SOLID
 62
    16
 48
2.0
  5
78B
 10
3.262102
 20
0.821914
 30
0.0
 40
0.0
 41
0.0
  0
VERTEX
  8
SCREEN
  6
DCAD_SOLID
 62
    16
 48
2.0
  5
78C
 10
3.267968
 20
0.824429
 30
0.0
 40
0.0
 41
0.0
  0
VERTEX
  8
SCREEN
  6
DCAD_SOLID
 62
    16
 48
2.0
  5
78D
 10
3.276889
 20
0.831904
 30
0.0
 40
0.0
 41
0.0
  0
VERTEX
  8
SCREEN
  6
DCAD_SOLID
 62
    16
 48
2.0
  5
78E
 10
3.276889
 20
0.779503
 30
0.0
 40
0.0
 41
0.0
  0
SEQEND
  8
0
  5
78F
  0
POLYLINE
  8
SCREEN
  6
DCAD_SOLID
 62
    16
 48
2.0
  5
790
 66
     1
 10
0.0
 20
0.0
 30
0.0
 70
   128
  0
VERTEX
  8
SCREEN
  6
DCAD_SOLID
 62
    16
 48
2.0
  5
791
 10
3.088563
 20
0.745411
 30
0.0
 40
0.0
 41
0.0
  0
VERTEX
  8
SCREEN
  6
DCAD_SOLID
 62
    16
 48
2.0
  5
792
 10
3.088563
 20
0.747874
 30
0.0
 40
0.0
 41
0.0
  0
VERTEX
  8
SCREEN
  6
DCAD_SOLID
 62
    16
 48
2.0
  5
793
 10
3.091367
 20
0.75282
 30
0.0
 40
0.0
 41
0.0
  0
VERTEX
  8
SCREEN
  6
DCAD_SOLID
 62
    16
 48
2.0
  5
794
 10
3.09417
 20
0.755288
 30
0.0
 40
0.0
 41
0.0
  0
VERTEX
  8
SCREEN
  6
DCAD_SOLID
 62
    16
 48
2.0
  5
795
 10
3.099774
 20
0.757761
 30
0.0
 40
0.0
 41
0.0
  0
VERTEX
  8
SCREEN
  6
DCAD_SOLID
 62
    16
 48
2.0
  5
796
 10
3.110974
 20
0.757761
 30
0.0
 40
0.0
 41
0.0
  0
VERTEX
  8
SCREEN
  6
DCAD_SOLID
 62
    16
 48
2.0
  5
797
 10
3.116578
 20
0.755288
 30
0.0
 40
0.0
 41
0.0
  0
VERTEX
  8
SCREEN
  6
DCAD_SOLID
 62
    16
 48
2.0
  5
798
 10
3.119381
 20
0.75282
 30
0.0
 40
0.0
 41
0.0
  0
VERTEX
  8
SCREEN
  6
DCAD_SOLID
 62
    16
 48
2.0
  5
799
 10
3.122186
 20
0.747874
 30
0.0
 40
0.0
 41
0.0
  0
VERTEX
  8
SCREEN
  6
DCAD_SOLID
 62
    16
 48
2.0
  5
79A
 10
3.122186
 20
0.742933
 30
0.0
 40
0.0
 41
0.0
  0
VERTEX
  8
SCREEN
  6
DCAD_SOLID
 62
    16
 48
2.0
  5
79B
 10
3.119381
 20
0.737992
 30
0.0
 40
0.0
 41
0.0
  0
VERTEX
  8
SCREEN
  6
DCAD_SOLID
 62
    16
 48
2.0
  5
79C
 10
3.113778
 20
0.730583
 30
0.0
 40
0.0
 41
0.0
  0
VERTEX
  8
SCREEN
  6
DCAD_SOLID
 62
    16
 48
2.0
  5
79D
 10
3.085763
 20
0.705888
 30
0.0
 40
0.0
 41
0.0
  0
VERTEX
  8
SCREEN
  6
DCAD_SOLID
 62
    16
 48
2.0
  5
79E
 10
3.124983
 20
0.705888
 30
0.0
 40
0.0
 41
0.0
  0
SEQEND
  8
0
  5
79F
  0
POLYLINE
  8
SCREEN
  6
DCAD_SOLID
 62
    16
 48
2.0
  5
7A0
 66
     1
 10
0.0
 20
0.0
 30
0.0
 70
   129
  0
VERTEX
  8
SCREEN
  6
DCAD_SOLID
 62
    16
 48
2.0
  5
7A1
 10
3.164003
 20
0.705794
 30
0.0
 40
0.0
 41
0.0
  0
VERTEX
  8
SCREEN
  6
DCAD_SOLID
 62
    16
 48
2.0
  5
7A2
 10
3.166461
 20
0.708818
 30
0.0
 40
0.0
 41
0.0
  0
VERTEX
  8
SCREEN
  6
DCAD_SOLID
 62
    16
 48
2.0
  5
7A3
 10
3.16857
 20
0.712518
 30
0.0
 40
0.0
 41
0.0
  0
VERTEX
  8
SCREEN
  6
DCAD_SOLID
 62
    16
 48
2.0
  5
7A4
 10
3.170269
 20
0.716784
 30
0.0
 40
0.0
 41
0.0
  0
VERTEX
  8
SCREEN
  6
DCAD_SOLID
 62
    16
 48
2.0
  5
7A5
 10
3.171506
 20
0.721485
 30
0.0
 40
0.0
 41
0.0
  0
VERTEX
  8
SCREEN
  6
DCAD_SOLID
 62
    16
 48
2.0
  5
7A6
 10
3.172242
 20
0.72648
 30
0.0
 40
0.0
 41
0.0
  0
VERTEX
  8
SCREEN
  6
DCAD_SOLID
 62
    16
 48
2.0
  5
7A7
 10
3.172456
 20
0.731614
 30
0.0
 40
0.0
 41
0.0
  0
VERTEX
  8
SCREEN
  6
DCAD_SOLID
 62
    16
 48
2.0
  5
7A8
 10
3.172141
 20
0.736733
 30
0.0
 40
0.0
 41
0.0
  0
VERTEX
  8
SCREEN
  6
DCAD_SOLID
 62
    16
 48
2.0
  5
7A9
 10
3.171305
 20
0.741683
 30
0.0
 40
0.0
 41
0.0
  0
VERTEX
  8
SCREEN
  6
DCAD_SOLID
 62
    16
 48
2.0
  5
7AA
 10
3.169977
 20
0.746311
 30
0.0
 40
0.0
 41
0.0
  0
VERTEX
  8
SCREEN
  6
DCAD_SOLID
 62
    16
 48
2.0
  5
7AB
 10
3.168193
 20
0.750478
 30
0.0
 40
0.0
 41
0.0
  0
VERTEX
  8
SCREEN
  6
DCAD_SOLID
 62
    16
 48
2.0
  5
7AC
 10
3.166011
 20
0.754056
 30
0.0
 40
0.0
 41
0.0
  0
VERTEX
  8
SCREEN
  6
DCAD_SOLID
 62
    16
 48
2.0
  5
7AD
 10
3.163496
 20
0.756937
 30
0.0
 40
0.0
 41
0.0
  0
VERTEX
  8
SCREEN
  6
DCAD_SOLID
 62
    16
 48
2.0
  5
7AE
 10
3.160723
 20
0.759034
 30
0.0
 40
0.0
 41
0.0
  0
VERTEX
  8
SCREEN
  6
DCAD_SOLID
 62
    16
 48
2.0
  5
7AF
 10
3.157778
 20
0.760283
 30
0.0
 40
0.0
 41
0.0
  0
VERTEX
  8
SCREEN
  6
DCAD_SOLID
 62
    16
 48
2.0
  5
7B0
 10
3.15475
 20
0.760645
 30
0.0
 40
0.0
 41
0.0
  0
VERTEX
  8
SCREEN
  6
DCAD_SOLID
 62
    16
 48
2.0
  5
7B1
 10
3.151731
 20
0.76011
 30
0.0
 40
0.0
 41
0.0
  0
VERTEX
  8
SCREEN
  6
DCAD_SOLID
 62
    16
 48
2.0
  5
7B2
 10
3.148813
 20
0.758694
 30
0.0
 40
0.0
 41
0.0
  0
VERTEX
  8
SCREEN
  6
DCAD_SOLID
 62
    16
 48
2.0
  5
7B3
 10
3.146083
 20
0.75644
 30
0.0
 40
0.0
 41
0.0
  0
VERTEX
  8
SCREEN
  6
DCAD_SOLID
 62
    16
 48
2.0
  5
7B4
 10
3.143627
 20
0.753417
 30
0.0
 40
0.0
 41
0.0
  0
VERTEX
  8
SCREEN
  6
DCAD_SOLID
 62
    16
 48
2.0
  5
7B5
 10
3.141516
 20
0.749717
 30
0.0
 40
0.0
 41
0.0
  0
VERTEX
  8
SCREEN
  6
DCAD_SOLID
 62
    16
 48
2.0
  5
7B6
 10
3.139818
 20
0.745451
 30
0.0
 40
0.0
 41
0.0
  0
VERTEX
  8
SCREEN
  6
DCAD_SOLID
 62
    16
 48
2.0
  5
7B7
 10
3.138581
 20
0.740749
 30
0.0
 40
0.0
 41
0.0
  0
VERTEX
  8
SCREEN
  6
DCAD_SOLID
 62
    16
 48
2.0
  5
7B8
 10
3.137845
 20
0.735756
 30
0.0
 40
0.0
 41
0.0
  0
VERTEX
  8
SCREEN
  6
DCAD_SOLID
 62
    16
 48
2.0
  5
7B9
 10
3.137631
 20
0.73062
 30
0.0
 40
0.0
 41
0.0
  0
VERTEX
  8
SCREEN
  6
DCAD_SOLID
 62
    16
 48
2.0
  5
7BA
 10
3.137947
 20
0.725501
 30
0.0
 40
0.0
 41
0.0
  0
VERTEX
  8
SCREEN
  6
DCAD_SOLID
 62
    16
 48
2.0
  5
7BB
 10
3.138781
 20
0.720552
 30
0.0
 40
0.0
 41
0.0
  0
VERTEX
  8
SCREEN
  6
DCAD_SOLID
 62
    16
 48
2.0
  5
7BC
 10
3.14011
 20
0.715923
 30
0.0
 40
0.0
 41
0.0
  0
VERTEX
  8
SCREEN
  6
DCAD_SOLID
 62
    16
 48
2.0
  5
7BD
 10
3.141893
 20
0.711758
 30
0.0
 40
0.0
 41
0.0
  0
VERTEX
  8
SCREEN
  6
DCAD_SOLID
 62
    16
 48
2.0
  5
7BE
 10
3.144075
 20
0.70818
 30
0.0
 40
0.0
 41
0.0
  0
VERTEX
  8
SCREEN
  6
DCAD_SOLID
 62
    16
 48
2.0
  5
7BF
 10
3.146591
 20
0.705298
 30
0.0
 40
0.0
 41
0.0
  0
VERTEX
  8
SCREEN
  6
DCAD_SOLID
 62
    16
 48
2.0
  5
7C0
 10
3.149363
 20
0.703201
 30
0.0
 40
0.0
 41
0.0
  0
VERTEX
  8
SCREEN
  6
DCAD_SOLID
 62
    16
 48
2.0
  5
7C1
 10
3.152308
 20
0.701953
 30
0.0
 40
0.0
 41
0.0
  0
VERTEX
  8
SCREEN
  6
DCAD_SOLID
 62
    16
 48
2.0
  5
7C2
 10
3.155336
 20
0.701591
 30
0.0
 40
0.0
 41
0.0
  0
VERTEX
  8
SCREEN
  6
DCAD_SOLID
 62
    16
 48
2.0
  5
7C3
 10
3.158355
 20
0.702126
 30
0.0
 40
0.0
 41
0.0
  0
VERTEX
  8
SCREEN
  6
DCAD_SOLID
 62
    16
 48
2.0
  5
7C4
 10
3.161274
 20
0.703541
 30
0.0
 40
0.0
 41
0.0
  0
VERTEX
  8
SCREEN
  6
DCAD_SOLID
 62
    16
 48
2.0
  5
7C5
 10
3.164003
 20
0.705794
 30
0.0
 40
0.0
 41
0.0
  0
VERTEX
  8
SCREEN
  6
DCAD_SOLID
 62
    16
 48
2.0
  5
7C6
 10
3.164003
 20
0.705794
 30
0.0
 40
0.0
 41
0.0
  0
SEQEND
  8
0
  5
7C7
  0
POLYLINE
  8
SCREEN
  6
DCAD_SOLID
 62
    16
 48
2.0
  5
7C8
 66
     1
 10
0.0
 20
0.0
 30
0.0
 70
   129
  0
VERTEX
  8
SCREEN
  6
DCAD_SOLID
 62
    16
 48
2.0
  5
7C9
 10
3.213905
 20
0.708696
 30
0.0
 40
0.0
 41
0.0
  0
VERTEX
  8
SCREEN
  6
DCAD_SOLID
 62
    16
 48
2.0
  5
7CA
 10
3.216362
 20
0.71172
 30
0.0
 40
0.0
 41
0.0
  0
VERTEX
  8
SCREEN
  6
DCAD_SOLID
 62
    16
 48
2.0
  5
7CB
 10
3.218472
 20
0.71542
 30
0.0
 40
0.0
 41
0.0
  0
VERTEX
  8
SCREEN
  6
DCAD_SOLID
 62
    16
 48
2.0
  5
7CC
 10
3.220171
 20
0.719686
 30
0.0
 40
0.0
 41
0.0
  0
VERTEX
  8
SCREEN
  6
DCAD_SOLID
 62
    16
 48
2.0
  5
7CD
 10
3.221407
 20
0.724387
 30
0.0
 40
0.0
 41
0.0
  0
VERTEX
  8
SCREEN
  6
DCAD_SOLID
 62
    16
 48
2.0
  5
7CE
 10
3.222144
 20
0.729381
 30
0.0
 40
0.0
 41
0.0
  0
VERTEX
  8
SCREEN
  6
DCAD_SOLID
 62
    16
 48
2.0
  5
7CF
 10
3.222357
 20
0.734516
 30
0.0
 40
0.0
 41
0.0
  0
VERTEX
  8
SCREEN
  6
DCAD_SOLID
 62
    16
 48
2.0
  5
7D0
 10
3.222043
 20
0.739636
 30
0.0
 40
0.0
 41
0.0
  0
VERTEX
  8
SCREEN
  6
DCAD_SOLID
 62
    16
 48
2.0
  5
7D1
 10
3.221207
 20
0.744585
 30
0.0
 40
0.0
 41
0.0
  0
VERTEX
  8
SCREEN
  6
DCAD_SOLID
 62
    16
 48
2.0
  5
7D2
 10
3.219879
 20
0.749213
 30
0.0
 40
0.0
 41
0.0
  0
VERTEX
  8
SCREEN
  6
DCAD_SOLID
 62
    16
 48
2.0
  5
7D3
 10
3.218095
 20
0.753379
 30
0.0
 40
0.0
 41
0.0
  0
VERTEX
  8
SCREEN
  6
DCAD_SOLID
 62
    16
 48
2.0
  5
7D4
 10
3.215913
 20
0.756957
 30
0.0
 40
0.0
 41
0.0
  0
VERTEX
  8
SCREEN
  6
DCAD_SOLID
 62
    16
 48
2.0
  5
7D5
 10
3.213398
 20
0.759839
 30
0.0
 40
0.0
 41
0.0
  0
VERTEX
  8
SCREEN
  6
DCAD_SOLID
 62
    16
 48
2.0
  5
7D6
 10
3.210625
 20
0.761935
 30
0.0
 40
0.0
 41
0.0
  0
VERTEX
  8
SCREEN
  6
DCAD_SOLID
 62
    16
 48
2.0
  5
7D7
 10
3.20768
 20
0.763184
 30
0.0
 40
0.0
 41
0.0
  0
VERTEX
  8
SCREEN
  6
DCAD_SOLID
 62
    16
 48
2.0
  5
7D8
 10
3.204652
 20
0.763546
 30
0.0
 40
0.0
 41
0.0
  0
VERTEX
  8
SCREEN
  6
DCAD_SOLID
 62
    16
 48
2.0
  5
7D9
 10
3.201633
 20
0.763011
 30
0.0
 40
0.0
 41
0.0
  0
VERTEX
  8
SCREEN
  6
DCAD_SOLID
 62
    16
 48
2.0
  5
7DA
 10
3.198715
 20
0.761596
 30
0.0
 40
0.0
 41
0.0
  0
VERTEX
  8
SCREEN
  6
DCAD_SOLID
 62
    16
 48
2.0
  5
7DB
 10
3.195985
 20
0.759342
 30
0.0
 40
0.0
 41
0.0
  0
VERTEX
  8
SCREEN
  6
DCAD_SOLID
 62
    16
 48
2.0
  5
7DC
 10
3.193529
 20
0.756319
 30
0.0
 40
0.0
 41
0.0
  0
VERTEX
  8
SCREEN
  6
DCAD_SOLID
 62
    16
 48
2.0
  5
7DD
 10
3.191418
 20
0.752618
 30
0.0
 40
0.0
 41
0.0
  0
VERTEX
  8
SCREEN
  6
DCAD_SOLID
 62
    16
 48
2.0
  5
7DE
 10
3.189719
 20
0.748353
 30
0.0
 40
0.0
 41
0.0
  0
VERTEX
  8
SCREEN
  6
DCAD_SOLID
 62
    16
 48
2.0
  5
7DF
 10
3.188483
 20
0.743651
 30
0.0
 40
0.0
 41
0.0
  0
VERTEX
  8
SCREEN
  6
DCAD_SOLID
 62
    16
 48
2.0
  5
7E0
 10
3.187747
 20
0.738657
 30
0.0
 40
0.0
 41
0.0
  0
VERTEX
  8
SCREEN
  6
DCAD_SOLID
 62
    16
 48
2.0
  5
7E1
 10
3.187533
 20
0.733522
 30
0.0
 40
0.0
 41
0.0
  0
VERTEX
  8
SCREEN
  6
DCAD_SOLID
 62
    16
 48
2.0
  5
7E2
 10
3.187849
 20
0.728403
 30
0.0
 40
0.0
 41
0.0
  0
VERTEX
  8
SCREEN
  6
DCAD_SOLID
 62
    16
 48
2.0
  5
7E3
 10
3.188683
 20
0.723454
 30
0.0
 40
0.0
 41
0.0
  0
VERTEX
  8
SCREEN
  6
DCAD_SOLID
 62
    16
 48
2.0
  5
7E4
 10
3.190012
 20
0.718825
 30
0.0
 40
0.0
 41
0.0
  0
VERTEX
  8
SCREEN
  6
DCAD_SOLID
 62
    16
 48
2.0
  5
7E5
 10
3.191795
 20
0.714659
 30
0.0
 40
0.0
 41
0.0
  0
VERTEX
  8
SCREEN
  6
DCAD_SOLID
 62
    16
 48
2.0
  5
7E6
 10
3.193977
 20
0.711081
 30
0.0
 40
0.0
 41
0.0
  0
VERTEX
  8
SCREEN
  6
DCAD_SOLID
 62
    16
 48
2.0
  5
7E7
 10
3.196493
 20
0.7082
 30
0.0
 40
0.0
 41
0.0
  0
VERTEX
  8
SCREEN
  6
DCAD_SOLID
 62
    16
 48
2.0
  5
7E8
 10
3.199265
 20
0.706102
 30
0.0
 40
0.0
 41
0.0
  0
VERTEX
  8
SCREEN
  6
DCAD_SOLID
 62
    16
 48
2.0
  5
7E9
 10
3.20221
 20
0.704854
 30
0.0
 40
0.0
 41
0.0
  0
VERTEX
  8
SCREEN
  6
DCAD_SOLID
 62
    16
 48
2.0
  5
7EA
 10
3.205238
 20
0.704492
 30
0.0
 40
0.0
 41
0.0
  0
VERTEX
  8
SCREEN
  6
DCAD_SOLID
 62
    16
 48
2.0
  5
7EB
 10
3.208257
 20
0.705027
 30
0.0
 40
0.0
 41
0.0
  0
VERTEX
  8
SCREEN
  6
DCAD_SOLID
 62
    16
 48
2.0
  5
7EC
 10
3.211175
 20
0.706443
 30
0.0
 40
0.0
 41
0.0
  0
VERTEX
  8
SCREEN
  6
DCAD_SOLID
 62
    16
 48
2.0
  5
7ED
 10
3.213905
 20
0.708696
 30
0.0
 40
0.0
 41
0.0
  0
VERTEX
  8
SCREEN
  6
DCAD_SOLID
 62
    16
 48
2.0
  5
7EE
 10
3.213905
 20
0.708696
 30
0.0
 40
0.0
 41
0.0
  0
SEQEND
  8
0
  5
7EF
  0
POLYLINE
  8
SCREEN
  6
DCAD_SOLID
 62
    16
 48
2.0
  5
7F0
 66
     1
 10
0.0
 20
0.0
 30
0.0
 70
   129
  0
VERTEX
  8
SCREEN
  6
DCAD_SOLID
 62
    16
 48
2.0
  5
7F1
 10
3.259746
 20
0.709822
 30
0.0
 40
0.0
 41
0.0
  0
VERTEX
  8
SCREEN
  6
DCAD_SOLID
 62
    16
 48
2.0
  5
7F2
 10
3.262203
 20
0.712845
 30
0.0
 40
0.0
 41
0.0
  0
VERTEX
  8
SCREEN
  6
DCAD_SOLID
 62
    16
 48
2.0
  5
7F3
 10
3.264313
 20
0.716545
 30
0.0
 40
0.0
 41
0.0
  0
VERTEX
  8
SCREEN
  6
DCAD_SOLID
 62
    16
 48
2.0
  5
7F4
 10
3.266013
 20
0.720811
 30
0.0
 40
0.0
 41
0.0
  0
VERTEX
  8
SCREEN
  6
DCAD_SOLID
 62
    16
 48
2.0
  5
7F5
 10
3.267249
 20
0.725513
 30
0.0
 40
0.0
 41
0.0
  0
VERTEX
  8
SCREEN
  6
DCAD_SOLID
 62
    16
 48
2.0
  5
7F6
 10
3.267985
 20
0.730507
 30
0.0
 40
0.0
 41
0.0
  0
VERTEX
  8
SCREEN
  6
DCAD_SOLID
 62
    16
 48
2.0
  5
7F7
 10
3.268198
 20
0.735642
 30
0.0
 40
0.0
 41
0.0
  0
VERTEX
  8
SCREEN
  6
DCAD_SOLID
 62
    16
 48
2.0
  5
7F8
 10
3.267884
 20
0.740761
 30
0.0
 40
0.0
 41
0.0
  0
VERTEX
  8
SCREEN
  6
DCAD_SOLID
 62
    16
 48
2.0
  5
7F9
 10
3.267048
 20
0.74571
 30
0.0
 40
0.0
 41
0.0
  0
VERTEX
  8
SCREEN
  6
DCAD_SOLID
 62
    16
 48
2.0
  5
7FA
 10
3.265719
 20
0.750339
 30
0.0
 40
0.0
 41
0.0
  0
VERTEX
  8
SCREEN
  6
DCAD_SOLID
 62
    16
 48
2.0
  5
7FB
 10
3.263937
 20
0.754504
 30
0.0
 40
0.0
 41
0.0
  0
VERTEX
  8
SCREEN
  6
DCAD_SOLID
 62
    16
 48
2.0
  5
7FC
 10
3.261755
 20
0.758083
 30
0.0
 40
0.0
 41
0.0
  0
VERTEX
  8
SCREEN
  6
DCAD_SOLID
 62
    16
 48
2.0
  5
7FD
 10
3.259239
 20
0.760964
 30
0.0
 40
0.0
 41
0.0
  0
VERTEX
  8
SCREEN
  6
DCAD_SOLID
 62
    16
 48
2.0
  5
7FE
 10
3.256466
 20
0.763061
 30
0.0
 40
0.0
 41
0.0
  0
VERTEX
  8
SCREEN
  6
DCAD_SOLID
 62
    16
 48
2.0
  5
7FF
 10
3.253521
 20
0.764309
 30
0.0
 40
0.0
 41
0.0
  0
VERTEX
  8
SCREEN
  6
DCAD_SOLID
 62
    16
 48
2.0
  5
800
 10
3.250494
 20
0.764671
 30
0.0
 40
0.0
 41
0.0
  0
VERTEX
  8
SCREEN
  6
DCAD_SOLID
 62
    16
 48
2.0
  5
801
 10
3.247474
 20
0.764137
 30
0.0
 40
0.0
 41
0.0
  0
VERTEX
  8
SCREEN
  6
DCAD_SOLID
 62
    16
 48
2.0
  5
802
 10
3.244556
 20
0.762721
 30
0.0
 40
0.0
 41
0.0
  0
VERTEX
  8
SCREEN
  6
DCAD_SOLID
 62
    16
 48
2.0
  5
803
 10
3.241827
 20
0.760468
 30
0.0
 40
0.0
 41
0.0
  0
VERTEX
  8
SCREEN
  6
DCAD_SOLID
 62
    16
 48
2.0
  5
804
 10
3.239369
 20
0.757444
 30
0.0
 40
0.0
 41
0.0
  0
VERTEX
  8
SCREEN
  6
DCAD_SOLID
 62
    16
 48
2.0
  5
805
 10
3.237259
 20
0.753743
 30
0.0
 40
0.0
 41
0.0
  0
VERTEX
  8
SCREEN
  6
DCAD_SOLID
 62
    16
 48
2.0
  5
806
 10
3.23556
 20
0.749478
 30
0.0
 40
0.0
 41
0.0
  0
VERTEX
  8
SCREEN
  6
DCAD_SOLID
 62
    16
 48
2.0
  5
807
 10
3.234324
 20
0.744777
 30
0.0
 40
0.0
 41
0.0
  0
VERTEX
  8
SCREEN
  6
DCAD_SOLID
 62
    16
 48
2.0
  5
808
 10
3.233588
 20
0.739782
 30
0.0
 40
0.0
 41
0.0
  0
VERTEX
  8
SCREEN
  6
DCAD_SOLID
 62
    16
 48
2.0
  5
809
 10
3.233374
 20
0.734648
 30
0.0
 40
0.0
 41
0.0
  0
VERTEX
  8
SCREEN
  6
DCAD_SOLID
 62
    16
 48
2.0
  5
80A
 10
3.23369
 20
0.729528
 30
0.0
 40
0.0
 41
0.0
  0
VERTEX
  8
SCREEN
  6
DCAD_SOLID
 62
    16
 48
2.0
  5
80B
 10
3.234524
 20
0.724579
 30
0.0
 40
0.0
 41
0.0
  0
VERTEX
  8
SCREEN
  6
DCAD_SOLID
 62
    16
 48
2.0
  5
80C
 10
3.235853
 20
0.719951
 30
0.0
 40
0.0
 41
0.0
  0
VERTEX
  8
SCREEN
  6
DCAD_SOLID
 62
    16
 48
2.0
  5
80D
 10
3.237636
 20
0.715784
 30
0.0
 40
0.0
 41
0.0
  0
VERTEX
  8
SCREEN
  6
DCAD_SOLID
 62
    16
 48
2.0
  5
80E
 10
3.239818
 20
0.712206
 30
0.0
 40
0.0
 41
0.0
  0
VERTEX
  8
SCREEN
  6
DCAD_SOLID
 62
    16
 48
2.0
  5
80F
 10
3.242334
 20
0.709325
 30
0.0
 40
0.0
 41
0.0
  0
VERTEX
  8
SCREEN
  6
DCAD_SOLID
 62
    16
 48
2.0
  5
810
 10
3.245106
 20
0.707229
 30
0.0
 40
0.0
 41
0.0
  0
VERTEX
  8
SCREEN
  6
DCAD_SOLID
 62
    16
 48
2.0
  5
811
 10
3.248051
 20
0.705979
 30
0.0
 40
0.0
 41
0.0
  0
VERTEX
  8
SCREEN
  6
DCAD_SOLID
 62
    16
 48
2.0
  5
812
 10
3.251079
 20
0.705617
 30
0.0
 40
0.0
 41
0.0
  0
VERTEX
  8
SCREEN
  6
DCAD_SOLID
 62
    16
 48
2.0
  5
813
 10
3.254098
 20
0.706152
 30
0.0
 40
0.0
 41
0.0
  0
VERTEX
  8
SCREEN
  6
DCAD_SOLID
 62
    16
 48
2.0
  5
814
 10
3.257017
 20
0.707568
 30
0.0
 40
0.0
 41
0.0
  0
VERTEX
  8
SCREEN
  6
DCAD_SOLID
 62
    16
 48
2.0
  5
815
 10
3.259746
 20
0.709822
 30
0.0
 40
0.0
 41
0.0
  0
VERTEX
  8
SCREEN
  6
DCAD_SOLID
 62
    16
 48
2.0
  5
816
 10
3.259746
 20
0.709822
 30
0.0
 40
0.0
 41
0.0
  0
SEQEND
  8
0
  5
817
  0
TEXT
  8
NUMBERS
 62
     7
 48
0.0
  5
818
 10
2.78789
 20
0.337217
 30
0.0
 40
0.025001
  1
DH
 50
270.0
 72
     5
 11
2.78789
 21
0.289966
 31
0.0
210
0.0
220
0.0
230
1.0
  0
TEXT
  8
NUMBERS
 62
     7
 48
0.0
  5
819
 10
2.78789
 20
0.412217
 30
0.0
 40
0.025001
  1
CH
 50
270.0
 72
     5
 11
2.78789
 21
0.364966
 31
0.0
210
0.0
220
0.0
230
1.0
  0
TEXT
  8
NUMBERS
 62
     7
 48
0.0
  5
81A
 10
2.794573
 20
0.591737
 30
0.0
 40
0.024483
  1
5V
 50
270.0
 72
     5
 11
2.794573
 21
0.548895
 31
0.0
210
0.0
220
0.0
230
1.0
  0
TEXT
  8
NUMBERS
 62
     7
 48
0.0
  5
81B
 10
2.79266
 20
0.521202
 30
0.0
 40
0.023845
  1
GD
 50
270.0
 72
     5
 11
2.79266
 21
0.464966
 31
0.0
210
0.0
220
0.0
230
1.0
  0
TEXT
  8
NUMBERS
 62
     7
 48
0.0
  5
81C
 10
2.792768
 20
0.662661
 30
0.0
 40
0.024386
  1
SH
 50
270.0
 72
     5
 11
2.792768
 21
0.614966
 31
0.0
210
0.0
220
0.0
230
1.0
  0
POINT
  8
HOLES
 62
     7
  5
81D
 10
2.726508
 20
0.333432
 30
0.0
  0
POINT
  8
HOLES
 62
     7
  5
81E
 10
2.726508
 20
0.412432
 30
0.0
  0
POINT
  8
HOLES
 62
     7
  5
81F
 10
2.726508
 20
0.491432
 30
0.0
  0
POINT
  8
HOLES
 62
     7
  5
820
 10
2.726508
 20
0.570431
 30
0.0
  0
POINT
  8
HOLES
 62
     7
  5
821
 10
2.726508
 20
0.649432
 30
0.0
  0
CIRCLE
  8
12
  6
DCAD_SOLID
 62
    16
 48
2.0
  5
822
 10
2.726508
 20
0.649432
 30
0.0
 40
0.0175
  0
CIRCLE
  8
12
  6
DCAD_SOLID
 62
    16
 48
2.0
  5
823
 10
2.726508
 20
0.570431
 30
0.0
 40
0.0175
  0
CIRCLE
  8
12
  6
DCAD_SOLID
 62
    16
 48
2.0
  5
824
 10
2.726508
 20
0.491432
 30
0.0
 40
0.0175
  0
CIRCLE
  8
12
  6
DCAD_SOLID
 62
    16
 48
2.0
  5
825
 10
2.726508
 20
0.412432
 30
0.0
 40
0.0175
  0
CIRCLE
  8
12
  6
DCAD_SOLID
 62
    16
 48
2.0
  5
826
 10
2.726508
 20
0.333432
 30
0.0
 40
0.0175
  0
POLYLINE
  8
SCREEN
  6
DCAD_SOLID
 62
    16
 48
2.0
  5
827
 66
     1
 10
0.0
 20
0.0
 30
0.0
 70
   129
  0
VERTEX
  8
SCREEN
  6
DCAD_SOLID
 62
    16
 48
2.0
  5
828
 10
2.656181
 20
0.599853
 30
0.0
 40
0.0
 41
0.0
  0
VERTEX
  8
SCREEN
  6
DCAD_SOLID
 62
    16
 48
2.0
  5
829
 10
2.656181
 20
0.331284
 30
0.0
 40
0.0
 41
0.0
  0
VERTEX
  8
SCREEN
  6
DCAD_SOLID
 62
    16
 48
2.0
  5
82A
 10
2.678906
 20
0.331284
 30
0.0
 40
0.0
 41
0.0
  0
VERTEX
  8
SCREEN
  6
DCAD_SOLID
 62
    16
 48
2.0
  5
82B
 10
2.678906
 20
0.599853
 30
0.0
 40
0.0
 41
0.0
  0
VERTEX
  8
SCREEN
  6
DCAD_SOLID
 62
    16
 48
2.0
  5
82C
 10
2.656181
 20
0.599853
 30
0.0
 40
0.0
 41
0.0
  0
SEQEND
  8
0
  5
82D
  0
TEXT
  8
NUMBERS
 62
     7
 48
0.0
  5
82E
 10
3.50759
 20
0.288309
 30
0.0
 40
0.025001
  1
D1
 50
90.0
 72
     5
 11
3.50759
 21
0.332059
 31
0.0
210
0.0
220
0.0
230
1.0
  0
TEXT
  8
NUMBERS
 62
     7
 48
0.0
  5
82F
 10
3.50759
 20
0.213309
 30
0.0
 40
0.025001
  1
C1
 50
90.0
 72
     5
 11
3.50759
 21
0.257059
 31
0.0
210
0.0
220
0.0
230
1.0
  0
TEXT
  8
NUMBERS
 62
     7
 48
0.0
  5
830
 10
3.500908
 20
0.033788
 30
0.0
 40
0.024484
  1
5V
 50
90.0
 72
     5
 11
3.500908
 21
0.076629
 31
0.0
210
0.0
220
0.0
230
1.0
  0
TEXT
  8
NUMBERS
 62
     7
 48
0.0
  5
831
 10
3.502821
 20
0.104323
 30
0.0
 40
0.023846
  1
GD
 50
90.0
 72
     5
 11
3.502821
 21
0.160558
 31
0.0
210
0.0
220
0.0
230
1.0
  0
TEXT
  8
NUMBERS
 62
     7
 48
0.0
  5
832
 10
3.502713
 20
-0.037136
 30
0.0
 40
0.024387
  1
SH
 50
90.001146
 72
     5
 11
3.502712
 21
0.010559
 31
0.0
210
0.0
220
0.0
230
1.0
  0
POINT
  8
HOLES
 62
     7
  5
833
 10
3.535656
 20
-0.004
 30
0.0
  0
POINT
  8
HOLES
 62
     7
  5
834
 10
3.535656
 20
0.075
 30
0.0
  0
POINT
  8
HOLES
 62
     7
  5
835
 10
3.535656
 20
0.154
 30
0.0
  0
POINT
  8
HOLES
 62
     7
  5
836
 10
3.535656
 20
0.232999
 30
0.0
  0
POINT
  8
HOLES
 62
     7
  5
837
 10
3.535656
 20
0.312
 30
0.0
  0
CIRCLE
  8
12
  6
DCAD_SOLID
 62
    16
 48
2.0
  5
838
 10
3.535656
 20
0.312
 30
0.0
 40
0.0175
  0
CIRCLE
  8
12
  6
DCAD_SOLID
 62
    16
 48
2.0
  5
839
 10
3.535656
 20
0.232999
 30
0.0
 40
0.0175
  0
CIRCLE
  8
12
  6
DCAD_SOLID
 62
    16
 48
2.0
  5
83A
 10
3.535656
 20
0.154
 30
0.0
 40
0.0175
  0
CIRCLE
  8
12
  6
DCAD_SOLID
 62
    16
 48
2.0
  5
83B
 10
3.535656
 20
0.075
 30
0.0
 40
0.0175
  0
CIRCLE
  8
12
  6
DCAD_SOLID
 62
    16
 48
2.0
  5
83C
 10
3.535656
 20
-0.004
 30
0.0
 40
0.0175
  0
TEXT
  8
NUMBERS
 62
     7
 48
0.0
  5
83D
 10
3.524806
 20
0.976946
 30
0.0
 40
0.025001
  1
D1
 50
90.0
 72
     5
 11
3.524806
 21
1.020695
 31
0.0
210
0.0
220
0.0
230
1.0
  0
TEXT
  8
NUMBERS
 62
     7
 48
0.0
  5
83E
 10
3.524806
 20
0.901946
 30
0.0
 40
0.025001
  1
C1
 50
90.0
 72
     5
 11
3.524806
 21
0.945696
 31
0.0
210
0.0
220
0.0
230
1.0
  0
TEXT
  8
NUMBERS
 62
     7
 48
0.0
  5
83F
 10
3.518124
 20
0.722424
 30
0.0
 40
0.024484
  1
5V
 50
90.0
 72
     5
 11
3.518124
 21
0.765266
 31
0.0
210
0.0
220
0.0
230
1.0
  0
TEXT
  8
NUMBERS
 62
     7
 48
0.0
  5
840
 10
3.520037
 20
0.79296
 30
0.0
 40
0.023846
  1
GD
 50
90.0
 72
     5
 11
3.520037
 21
0.849195
 31
0.0
210
0.0
220
0.0
230
1.0
  0
TEXT
  8
NUMBERS
 62
     7
 48
0.0
  5
841
 10
3.519929
 20
0.651501
 30
0.0
 40
0.024387
  1
SH
 50
90.001146
 72
     5
 11
3.519928
 21
0.699196
 31
0.0
210
0.0
220
0.0
230
1.0
  0
POINT
  8
HOLES
 62
     7
  5
842
 10
3.552872
 20
0.684637
 30
0.0
  0
POINT
  8
HOLES
 62
     7
  5
843
 10
3.552872
 20
0.763637
 30
0.0
  0
POINT
  8
HOLES
 62
     7
  5
844
 10
3.552872
 20
0.842637
 30
0.0
  0
POINT
  8
HOLES
 62
     7
  5
845
 10
3.552872
 20
0.921636
 30
0.0
  0
POINT
  8
HOLES
 62
     7
  5
846
 10
3.552872
 20
1.000637
 30
0.0
  0
CIRCLE
  8
12
  6
DCAD_SOLID
 62
    16
 48
2.0
  5
847
 10
3.552872
 20
1.000637
 30
0.0
 40
0.0175
  0
CIRCLE
  8
12
  6
DCAD_SOLID
 62
    16
 48
2.0
  5
848
 10
3.552872
 20
0.921636
 30
0.0
 40
0.0175
  0
CIRCLE
  8
12
  6
DCAD_SOLID
 62
    16
 48
2.0
  5
849
 10
3.552872
 20
0.842637
 30
0.0
 40
0.0175
  0
CIRCLE
  8
12
  6
DCAD_SOLID
 62
    16
 48
2.0
  5
84A
 10
3.552872
 20
0.763637
 30
0.0
 40
0.0175
  0
CIRCLE
  8
12
  6
DCAD_SOLID
 62
    16
 48
2.0
  5
84B
 10
3.552872
 20
0.684637
 30
0.0
 40
0.0175
  0
POLYLINE
  8
SCREEN
  6
DCAD_SOLID
 62
    16
 48
2.0
  5
84C
 66
     1
 10
0.0
 20
0.0
 30
0.0
 70
   129
  0
VERTEX
  8
SCREEN
  6
DCAD_SOLID
 62
    16
 48
2.0
  5
84D
 10
3.601482
 20
0.268421
 30
0.0
 40
0.0
 41
0.0
  0
VERTEX
  8
SCREEN
  6
DCAD_SOLID
 62
    16
 48
2.0
  5
84E
 10
3.601482
 20
-0.000148
 30
0.0
 40
0.0
 41
0.0
  0
VERTEX
  8
SCREEN
  6
DCAD_SOLID
 62
    16
 48
2.0
  5
84F
 10
3.624207
 20
-0.000148
 30
0.0
 40
0.0
 41
0.0
  0
VERTEX
  8
SCREEN
  6
DCAD_SOLID
 62
    16
 48
2.0
  5
850
 10
3.624207
 20
0.268421
 30
0.0
 40
0.0
 41
0.0
  0
VERTEX
  8
SCREEN
  6
DCAD_SOLID
 62
    16
 48
2.0
  5
851
 10
3.601482
 20
0.268421
 30
0.0
 40
0.0
 41
0.0
  0
SEQEND
  8
0
  5
852
  0
POLYLINE
  8
SCREEN
  6
DCAD_SOLID
 62
    16
 48
2.0
  5
853
 66
     1
 10
0.0
 20
0.0
 30
0.0
 70
   129
  0
VERTEX
  8
SCREEN
  6
DCAD_SOLID
 62
    16
 48
2.0
  5
854
 10
3.604925
 20
0.967387
 30
0.0
 40
0.0
 41
0.0
  0
VERTEX
  8
SCREEN
  6
DCAD_SOLID
 62
    16
 48
2.0
  5
855
 10
3.604925
 20
0.698819
 30
0.0
 40
0.0
 41
0.0
  0
VERTEX
  8
SCREEN
  6
DCAD_SOLID
 62
    16
 48
2.0
  5
856
 10
3.62765
 20
0.698819
 30
0.0
 40
0.0
 41
0.0
  0
VERTEX
  8
SCREEN
  6
DCAD_SOLID
 62
    16
 48
2.0
  5
857
 10
3.62765
 20
0.967387
 30
0.0
 40
0.0
 41
0.0
  0
VERTEX
  8
SCREEN
  6
DCAD_SOLID
 62
    16
 48
2.0
  5
858
 10
3.604925
 20
0.967387
 30
0.0
 40
0.0
 41
0.0
  0
SEQEND
  8
0
  5
859
  0
POINT
  8
HOLES
 62
     7
  5
85A
 10
2.776459
 20
0.964671
 30
0.0
  0
POINT
  8
HOLES
 62
     7
  5
85B
 10
2.776459
 20
0.01467
 30
0.0
  0
POINT
  8
HOLES
 62
     7
  5
85C
 10
3.526459
 20
0.489671
 30
0.0
  0
POLYLINE
  8
HOLES
  6
DCAD_SOLID
 62
    16
 48
2.0
  5
85D
 66
     1
 10
0.0
 20
0.0
 30
0.0
 70
   129
  0
VERTEX
  8
HOLES
  6
DCAD_SOLID
 62
    16
 48
2.0
  5
85E
 10
3.651459
 20
-0.11033
 30
0.0
 40
0.0
 41
0.0
  0
VERTEX
  8
HOLES
  6
DCAD_SOLID
 62
    16
 48
2.0
  5
85F
 10
3.651459
 20
1.089671
 30
0.0
 40
0.0
 41
0.0
  0
VERTEX
  8
HOLES
  6
DCAD_SOLID
 62
    16
 48
2.0
  5
860
 10
2.651459
 20
1.089671
 30
0.0
 40
0.0
 41
0.0
  0
VERTEX
  8
HOLES
  6
DCAD_SOLID
 62
    16
 48
2.0
  5
861
 10
2.651459
 20
-0.11033
 30
0.0
 40
0.0
 41
0.0
  0
VERTEX
  8
HOLES
  6
DCAD_SOLID
 62
    16
 48
2.0
  5
862
 10
3.651459
 20
-0.11033
 30
0.0
 40
0.0
 41
0.0
  0
SEQEND
  8
0
  5
863
  0
TEXT
  8
HOLES
 62
    16
 48
0.0
  5
864
 10
2.741595
 20
-0.435048
 30
0.0
 40
0.05
  1
Note: J1 port is the host
 72
     5
 11
3.480094
 21
-0.435048
 31
0.0
210
0.0
220
0.0
230
1.0
  0
TEXT
  8
HOLES
 62
    16
 48
0.0
  5
865
 10
2.722903
 20
-0.533176
 30
0.0
 40
0.05
  1
J2 and J3 are Device Ports
 72
     5
 11
3.559402
 21
-0.533176
 31
0.0
210
0.0
220
0.0
230
1.0
  0
TEXT
  8
HOLES
 62
    16
 48
0.0
  5
866
 10
2.636457
 20
-0.633641
 30
0.0
 40
0.05
  1
Headers are 2mm, straight entry
 72
     5
 11
3.633956
 21
-0.633641
 31
0.0
210
0.0
220
0.0
230
1.0
  0
TEXT
  8
HOLES
 62
    16
 48
0.0
  5
867
 10
2.704476
 20
-0.722538
 30
0.0
 40
0.05
  1
JST part # B5BPH-K 
 72
     5
 11
3.362478
 21
-0.722538
 31
0.0
210
0.0
220
0.0
230
1.0
  0
TEXT
  8
HOLES
 62
    16
 48
0.0
  5
868
 10
2.674853
 20
-0.944708
 30
0.0
 40
0.05
  1
Housing, JST part #: PHR-5
 72
     5
 11
3.528858
 21
-0.944708
 31
0.0
210
0.0
220
0.0
230
1.0
  0
TEXT
  8
HOLES
 62
    16
 48
0.0
  5
869
 10
2.674853
 20
-1.023702
 30
0.0
 40
0.05
  1
and pins SPH-002T-P0.5S
 72
     5
 11
3.483354
 21
-1.023702
 31
0.0
210
0.0
220
0.0
230
1.0
  0
TEXT
  8
HOLES
 62
    16
 48
0.0
  5
86A
 10
2.724224
 20
-0.875589
 30
0.0
 40
0.05
  1
Customer must supply:
 72
     5
 11
3.427725
 21
-0.875589
 31
0.0
210
0.0
220
0.0
230
1.0
  0
TEXT
  8
HOLES
 62
    16
 48
0.0
  5
86B
 10
2.768658
 20
1.67042
 30
0.0
 40
0.05
  1
P.I. Engineering, Inc. 
 72
     5
 11
3.430158
 21
1.67042
 31
0.0
210
0.0
220
0.0
230
1.0
  0
TEXT
  8
HOLES
 62
    16
 48
0.0
  5
86C
 10
2.745516
 20
1.56242
 30
0.0
 40
0.05
  1
Y-mouse and Y-keykey
 72
     5
 11
3.466515
 21
1.56242
 31
0.0
210
0.0
220
0.0
230
1.0
  0
TEXT
  8
HOLES
 62
    16
 48
0.0
  5
86D
 10
2.899801
 20
1.469849
 30
0.0
 40
0.05
  1
Header boards
 72
     5
 11
3.3583
 21
1.469849
 31
0.0
210
0.0
220
0.0
230
1.0
  0
CIRCLE
  8
HOLES
  6
DCAD_SOLID
 62
    16
 48
2.0
  5
86E
 10
2.776459
 20
0.964671
 30
0.0
 40
0.05
  0
CIRCLE
  8
HOLES
  6
DCAD_SOLID
 62
    16
 48
2.0
  5
86F
 10
3.526459
 20
0.489671
 30
0.0
 40
0.05
  0
CIRCLE
  8
HOLES
  6
DCAD_SOLID
 62
    16
 48
2.0
  5
870
 10
2.776459
 20
0.01467
 30
0.0
 40
0.05
  0
POLYLINE
  8
HOLES
  6
DCAD_SOLID
 62
    16
 48
0.125
  5
871
 66
     1
 10
0.0
 20
0.0
 30
0.0
 70
   128
  0
VERTEX
  8
HOLES
  6
DCAD_SOLID
 62
    16
 48
0.125
  5
872
 10
2.651459
 20
1.139671
 30
0.0
 40
0.0
 41
0.0
  0
VERTEX
  8
HOLES
  6
DCAD_SOLID
 62
    16
 48
0.125
  5
873
 10
2.651459
 20
1.272153
 30
0.0
 40
0.0
 41
0.0
  0
SEQEND
  8
0
  5
874
  0
POLYLINE
  8
HOLES
  6
DCAD_SOLID
 62
    16
 48
0.125
  5
875
 66
     1
 10
0.0
 20
0.0
 30
0.0
 70
   128
  0
VERTEX
  8
HOLES
  6
DCAD_SOLID
 62
    16
 48
0.125
  5
876
 10
3.651459
 20
1.139671
 30
0.0
 40
0.0
 41
0.0
  0
VERTEX
  8
HOLES
  6
DCAD_SOLID
 62
    16
 48
0.125
  5
877
 10
3.651459
 20
1.272153
 30
0.0
 40
0.0
 41
0.0
  0
SEQEND
  8
0
  5
878
  0
TEXT
  8
HOLES
 62
    16
 48
0.0
  5
879
 10
3.064099
 20
1.227153
 30
0.0
 40
0.05
  1
1.000
 72
     5
 11
3.238819
 21
1.227153
 31
0.0
210
0.0
220
0.0
230
1.0
  0
POLYLINE
  8
HOLES
  6
DCAD_SOLID
 62
    16
 48
0.125
  5
87A
 66
     1
 10
0.0
 20
0.0
 30
0.0
 70
   128
  0
VERTEX
  8
HOLES
  6
DCAD_SOLID
 62
    16
 48
0.125
  5
87B
 10
2.601459
 20
-0.11033
 30
0.0
 40
0.0
 41
0.0
  0
VERTEX
  8
HOLES
  6
DCAD_SOLID
 62
    16
 48
0.125
  5
87C
 10
2.3895
 20
-0.11033
 30
0.0
 40
0.0
 41
0.0
  0
SEQEND
  8
0
  5
87D
  0
POLYLINE
  8
HOLES
  6
DCAD_SOLID
 62
    16
 48
0.125
  5
87E
 66
     1
 10
0.0
 20
0.0
 30
0.0
 70
   128
  0
VERTEX
  8
HOLES
  6
DCAD_SOLID
 62
    16
 48
0.125
  5
87F
 10
2.601459
 20
1.089671
 30
0.0
 40
0.0
 41
0.0
  0
VERTEX
  8
HOLES
  6
DCAD_SOLID
 62
    16
 48
0.125
  5
880
 10
2.3895
 20
1.089671
 30
0.0
 40
0.0
 41
0.0
  0
SEQEND
  8
0
  5
881
  0
TEXT
  8
HOLES
 62
    16
 48
0.0
  5
882
 10
2.4345
 20
0.40231
 30
0.0
 40
0.05
  1
1.200
 50
90.0
 72
     5
 11
2.4345
 21
0.577032
 31
0.0
210
0.0
220
0.0
230
1.0
  0
POLYLINE
  8
HOLES
  6
DCAD_SOLID
 62
    16
 48
0.125
  5
883
 66
     1
 10
0.0
 20
0.0
 30
0.0
 70
   128
  0
VERTEX
  8
HOLES
  6
DCAD_SOLID
 62
    16
 48
0.125
  5
884
 10
2.726459
 20
0.01467
 30
0.0
 40
0.0
 41
0.0
  0
VERTEX
  8
HOLES
  6
DCAD_SOLID
 62
    16
 48
0.125
  5
885
 10
2.529683
 20
0.01467
 30
0.0
 40
0.0
 41
0.0
  0
SEQEND
  8
0
  5
886
  0
POLYLINE
  8
HOLES
  6
DCAD_SOLID
 62
    16
 48
0.125
  5
887
 66
     1
 10
0.0
 20
0.0
 30
0.0
 70
   128
  0
VERTEX
  8
HOLES
  6
DCAD_SOLID
 62
    16
 48
0.125
  5
888
 10
2.726459
 20
0.964671
 30
0.0
 40
0.0
 41
0.0
  0
VERTEX
  8
HOLES
  6
DCAD_SOLID
 62
    16
 48
0.125
  5
889
 10
2.529683
 20
0.964671
 30
0.0
 40
0.0
 41
0.0
  0
SEQEND
  8
0
  5
88A
  0
TEXT
  8
HOLES
 62
    16
 48
0.0
  5
88B
 10
2.574683
 20
0.40231
 30
0.0
 40
0.05
  1
0.950
 50
90.0
 72
     5
 11
2.574683
 21
0.577032
 31
0.0
210
0.0
220
0.0
230
1.0
  0
POLYLINE
  8
HOLES
  6
DCAD_SOLID
 62
    16
 48
0.125
  5
88C
 66
     1
 10
0.0
 20
0.0
 30
0.0
 70
   128
  0
VERTEX
  8
HOLES
  6
DCAD_SOLID
 62
    16
 48
0.125
  5
88D
 10
2.776459
 20
-0.03533
 30
0.0
 40
0.0
 41
0.0
  0
VERTEX
  8
HOLES
  6
DCAD_SOLID
 62
    16
 48
0.125
  5
88E
 10
2.776459
 20
-0.324537
 30
0.0
 40
0.0
 41
0.0
  0
SEQEND
  8
0
  5
88F
  0
POLYLINE
  8
HOLES
  6
DCAD_SOLID
 62
    16
 48
0.125
  5
890
 66
     1
 10
0.0
 20
0.0
 30
0.0
 70
   128
  0
VERTEX
  8
HOLES
  6
DCAD_SOLID
 62
    16
 48
0.125
  5
891
 10
3.526459
 20
0.439671
 30
0.0
 40
0.0
 41
0.0
  0
VERTEX
  8
HOLES
  6
DCAD_SOLID
 62
    16
 48
0.125
  5
892
 10
3.526459
 20
-0.324537
 30
0.0
 40
0.0
 41
0.0
  0
SEQEND
  8
0
  5
893
  0
TEXT
  8
HOLES
 62
    16
 48
0.0
  5
894
 10
3.064099
 20
-0.319537
 30
0.0
 40
0.05
  1
0.750
 72
     5
 11
3.23882
 21
-0.319537
 31
0.0
210
0.0
220
0.0
230
1.0
  0
POLYLINE
  8
HOLES
  6
DCAD_SOLID
 62
    16
 48
0.125
  5
895
 66
     1
 10
0.0
 20
0.0
 30
0.0
 70
   128
  0
VERTEX
  8
HOLES
  6
DCAD_SOLID
 62
    16
 48
0.125
  5
896
 10
2.826459
 20
0.01467
 30
0.0
 40
0.0
 41
0.0
  0
VERTEX
  8
HOLES
  6
DCAD_SOLID
 62
    16
 48
0.125
  5
897
 10
3.864698
 20
0.01467
 30
0.0
 40
0.0
 41
0.0
  0
SEQEND
  8
0
  5
898
  0
POLYLINE
  8
HOLES
  6
DCAD_SOLID
 62
    16
 48
0.125
  5
899
 66
     1
 10
0.0
 20
0.0
 30
0.0
 70
   128
  0
VERTEX
  8
HOLES
  6
DCAD_SOLID
 62
    16
 48
0.125
  5
89A
 10
3.576459
 20
0.489671
 30
0.0
 40
0.0
 41
0.0
  0
VERTEX
  8
HOLES
  6
DCAD_SOLID
 62
    16
 48
0.125
  5
89B
 10
3.864698
 20
0.489671
 30
0.0
 40
0.0
 41
0.0
  0
SEQEND
  8
0
  5
89C
  0
TEXT
  8
HOLES
 62
    16
 48
0.0
  5
89D
 10
3.859698
 20
0.16481
 30
0.0
 40
0.05
  1
0.475
 50
90.0
 72
     5
 11
3.859698
 21
0.339531
 31
0.0
210
0.0
220
0.0
230
1.0
  0
POLYLINE
  8
HOLES
  6
DCAD_SOLID
 62
    16
 48
0.125
  5
89E
 66
     1
 10
0.0
 20
0.0
 30
0.0
 70
   128
  0
VERTEX
  8
HOLES
  6
DCAD_SOLID
 62
    16
 48
0.125
  5
89F
 10
2.740103
 20
0.930346
 30
0.0
 40
0.0
 41
0.0
  0
VERTEX
  8
HOLES
  6
DCAD_SOLID
 62
    16
 48
0.125
  5
8A0
 10
2.812816
 20
0.998996
 30
0.0
 40
0.0
 41
0.0
  0
SEQEND
  8
0
  5
8A1
  0
TEXT
  8
HOLES
 62
    16
 48
0.0
  5
8A2
 10
2.877709
 20
1.032757
 30
0.0
 40
0.05
  1
%%c0.100
 50
43.353238
 72
     5
 11
3.044259
 21
1.189999
 31
0.0
210
0.0
220
0.0
230
1.0
  0
POLYLINE
  8
HOLES
  6
DCAD_SOLID
 62
    16
 48
0.125
  5
8A3
 66
     1
 10
0.0
 20
0.0
 30
0.0
 70
   128
  0
VERTEX
  8
HOLES
  6
DCAD_SOLID
 62
    16
 48
0.125
  5
8A4
 10
3.013959
 20
1.247153
 30
0.0
 40
0.0
 41
0.0
  0
VERTEX
  8
HOLES
  6
DCAD_SOLID
 62
    16
 48
0.125
  5
8A5
 10
2.651459
 20
1.247153
 30
0.0
 40
0.0
 41
0.0
  0
SEQEND
  8
0
  5
8A6
  0
POLYLINE
  8
HOLES
  6
DCAD_SOLID
 62
    16
 48
0.125
  5
8A7
 66
     1
 10
0.0
 20
0.0
 30
0.0
 70
   129
  0
VERTEX
  8
HOLES
  6
DCAD_SOLID
 62
    16
 48
0.125
  5
8A8
 10
2.701459
 20
1.218286
 30
0.0
 40
0.0
 41
0.0
  0
VERTEX
  8
HOLES
  6
DCAD_SOLID
 62
    16
 48
0.125
  5
8A9
 10
2.651459
 20
1.247153
 30
0.0
 40
0.0
 41
0.0
  0
VERTEX
  8
HOLES
  6
DCAD_SOLID
 62
    16
 48
0.125
  5
8AA
 10
2.701459
 20
1.276021
 30
0.0
 40
0.0
 41
0.0
  0
VERTEX
  8
HOLES
  6
DCAD_SOLID
 62
    16
 48
0.125
  5
8AB
 10
2.701459
 20
1.218286
 30
0.0
 40
0.0
 41
0.0
  0
SEQEND
  8
0
  5
8AC
  0
POLYLINE
  8
HOLES
  6
DCAD_SOLID
 62
    16
 48
0.125
  5
8AD
 66
     1
 10
0.0
 20
0.0
 30
0.0
 70
   128
  0
VERTEX
  8
HOLES
  6
DCAD_SOLID
 62
    16
 48
0.125
  5
8AE
 10
3.288959
 20
1.247153
 30
0.0
 40
0.0
 41
0.0
  0
VERTEX
  8
HOLES
  6
DCAD_SOLID
 62
    16
 48
0.125
  5
8AF
 10
3.651459
 20
1.247153
 30
0.0
 40
0.0
 41
0.0
  0
SEQEND
  8
0
  5
8B0
  0
POLYLINE
  8
HOLES
  6
DCAD_SOLID
 62
    16
 48
0.125
  5
8B1
 66
     1
 10
0.0
 20
0.0
 30
0.0
 70
   129
  0
VERTEX
  8
HOLES
  6
DCAD_SOLID
 62
    16
 48
0.125
  5
8B2
 10
3.601459
 20
1.276021
 30
0.0
 40
0.0
 41
0.0
  0
VERTEX
  8
HOLES
  6
DCAD_SOLID
 62
    16
 48
0.125
  5
8B3
 10
3.651459
 20
1.247153
 30
0.0
 40
0.0
 41
0.0
  0
VERTEX
  8
HOLES
  6
DCAD_SOLID
 62
    16
 48
0.125
  5
8B4
 10
3.601459
 20
1.218286
 30
0.0
 40
0.0
 41
0.0
  0
VERTEX
  8
HOLES
  6
DCAD_SOLID
 62
    16
 48
0.125
  5
8B5
 10
3.601459
 20
1.276021
 30
0.0
 40
0.0
 41
0.0
  0
SEQEND
  8
0
  5
8B6
  0
POLYLINE
  8
HOLES
  6
DCAD_SOLID
 62
    16
 48
0.125
  5
8B7
 66
     1
 10
0.0
 20
0.0
 30
0.0
 70
   128
  0
VERTEX
  8
HOLES
  6
DCAD_SOLID
 62
    16
 48
0.125
  5
8B8
 10
2.4145
 20
0.352171
 30
0.0
 40
0.0
 41
0.0
  0
VERTEX
  8
HOLES
  6
DCAD_SOLID
 62
    16
 48
0.125
  5
8B9
 10
2.4145
 20
-0.11033
 30
0.0
 40
0.0
 41
0.0
  0
SEQEND
  8
0
  5
8BA
  0
POLYLINE
  8
HOLES
  6
DCAD_SOLID
 62
    16
 48
0.125
  5
8BB
 66
     1
 10
0.0
 20
0.0
 30
0.0
 70
   129
  0
VERTEX
  8
HOLES
  6
DCAD_SOLID
 62
    16
 48
0.125
  5
8BC
 10
2.443368
 20
-0.060329
 30
0.0
 40
0.0
 41
0.0
  0
VERTEX
  8
HOLES
  6
DCAD_SOLID
 62
    16
 48
0.125
  5
8BD
 10
2.4145
 20
-0.11033
 30
0.0
 40
0.0
 41
0.0
  0
VERTEX
  8
HOLES
  6
DCAD_SOLID
 62
    16
 48
0.125
  5
8BE
 10
2.385632
 20
-0.060329
 30
0.0
 40
0.0
 41
0.0
  0
VERTEX
  8
HOLES
  6
DCAD_SOLID
 62
    16
 48
0.125
  5
8BF
 10
2.443368
 20
-0.060329
 30
0.0
 40
0.0
 41
0.0
  0
SEQEND
  8
0
  5
8C0
  0
POLYLINE
  8
HOLES
  6
DCAD_SOLID
 62
    16
 48
0.125
  5
8C1
 66
     1
 10
0.0
 20
0.0
 30
0.0
 70
   128
  0
VERTEX
  8
HOLES
  6
DCAD_SOLID
 62
    16
 48
0.125
  5
8C2
 10
2.4145
 20
0.627171
 30
0.0
 40
0.0
 41
0.0
  0
VERTEX
  8
HOLES
  6
DCAD_SOLID
 62
    16
 48
0.125
  5
8C3
 10
2.4145
 20
1.089671
 30
0.0
 40
0.0
 41
0.0
  0
SEQEND
  8
0
  5
8C4
  0
POLYLINE
  8
HOLES
  6
DCAD_SOLID
 62
    16
 48
0.125
  5
8C5
 66
     1
 10
0.0
 20
0.0
 30
0.0
 70
   129
  0
VERTEX
  8
HOLES
  6
DCAD_SOLID
 62
    16
 48
0.125
  5
8C6
 10
2.385632
 20
1.039671
 30
0.0
 40
0.0
 41
0.0
  0
VERTEX
  8
HOLES
  6
DCAD_SOLID
 62
    16
 48
0.125
  5
8C7
 10
2.4145
 20
1.089671
 30
0.0
 40
0.0
 41
0.0
  0
VERTEX
  8
HOLES
  6
DCAD_SOLID
 62
    16
 48
0.125
  5
8C8
 10
2.443368
 20
1.039671
 30
0.0
 40
0.0
 41
0.0
  0
VERTEX
  8
HOLES
  6
DCAD_SOLID
 62
    16
 48
0.125
  5
8C9
 10
2.385632
 20
1.039671
 30
0.0
 40
0.0
 41
0.0
  0
SEQEND
  8
0
  5
8CA
  0
POLYLINE
  8
HOLES
  6
DCAD_SOLID
 62
    16
 48
0.125
  5
8CB
 66
     1
 10
0.0
 20
0.0
 30
0.0
 70
   128
  0
VERTEX
  8
HOLES
  6
DCAD_SOLID
 62
    16
 48
0.125
  5
8CC
 10
2.554683
 20
0.352171
 30
0.0
 40
0.0
 41
0.0
  0
VERTEX
  8
HOLES
  6
DCAD_SOLID
 62
    16
 48
0.125
  5
8CD
 10
2.554683
 20
0.01467
 30
0.0
 40
0.0
 41
0.0
  0
SEQEND
  8
0
  5
8CE
  0
POLYLINE
  8
HOLES
  6
DCAD_SOLID
 62
    16
 48
0.125
  5
8CF
 66
     1
 10
0.0
 20
0.0
 30
0.0
 70
   129
  0
VERTEX
  8
HOLES
  6
DCAD_SOLID
 62
    16
 48
0.125
  5
8D0
 10
2.583551
 20
0.064671
 30
0.0
 40
0.0
 41
0.0
  0
VERTEX
  8
HOLES
  6
DCAD_SOLID
 62
    16
 48
0.125
  5
8D1
 10
2.554683
 20
0.01467
 30
0.0
 40
0.0
 41
0.0
  0
VERTEX
  8
HOLES
  6
DCAD_SOLID
 62
    16
 48
0.125
  5
8D2
 10
2.525816
 20
0.064671
 30
0.0
 40
0.0
 41
0.0
  0
VERTEX
  8
HOLES
  6
DCAD_SOLID
 62
    16
 48
0.125
  5
8D3
 10
2.583551
 20
0.064671
 30
0.0
 40
0.0
 41
0.0
  0
SEQEND
  8
0
  5
8D4
  0
POLYLINE
  8
HOLES
  6
DCAD_SOLID
 62
    16
 48
0.125
  5
8D5
 66
     1
 10
0.0
 20
0.0
 30
0.0
 70
   128
  0
VERTEX
  8
HOLES
  6
DCAD_SOLID
 62
    16
 48
0.125
  5
8D6
 10
2.554683
 20
0.627171
 30
0.0
 40
0.0
 41
0.0
  0
VERTEX
  8
HOLES
  6
DCAD_SOLID
 62
    16
 48
0.125
  5
8D7
 10
2.554683
 20
0.964671
 30
0.0
 40
0.0
 41
0.0
  0
SEQEND
  8
0
  5
8D8
  0
POLYLINE
  8
HOLES
  6
DCAD_SOLID
 62
    16
 48
0.125
  5
8D9
 66
     1
 10
0.0
 20
0.0
 30
0.0
 70
   129
  0
VERTEX
  8
HOLES
  6
DCAD_SOLID
 62
    16
 48
0.125
  5
8DA
 10
2.525816
 20
0.914671
 30
0.0
 40
0.0
 41
0.0
  0
VERTEX
  8
HOLES
  6
DCAD_SOLID
 62
    16
 48
0.125
  5
8DB
 10
2.554683
 20
0.964671
 30
0.0
 40
0.0
 41
0.0
  0
VERTEX
  8
HOLES
  6
DCAD_SOLID
 62
    16
 48
0.125
  5
8DC
 10
2.583551
 20
0.914671
 30
0.0
 40
0.0
 41
0.0
  0
VERTEX
  8
HOLES
  6
DCAD_SOLID
 62
    16
 48
0.125
  5
8DD
 10
2.525816
 20
0.914671
 30
0.0
 40
0.0
 41
0.0
  0
SEQEND
  8
0
  5
8DE
  0
POLYLINE
  8
HOLES
  6
DCAD_SOLID
 62
    16
 48
0.125
  5
8DF
 66
     1
 10
0.0
 20
0.0
 30
0.0
 70
   128
  0
VERTEX
  8
HOLES
  6
DCAD_SOLID
 62
    16
 48
0.125
  5
8E0
 10
3.013959
 20
-0.299537
 30
0.0
 40
0.0
 41
0.0
  0
VERTEX
  8
HOLES
  6
DCAD_SOLID
 62
    16
 48
0.125
  5
8E1
 10
2.776459
 20
-0.299537
 30
0.0
 40
0.0
 41
0.0
  0
SEQEND
  8
0
  5
8E2
  0
POLYLINE
  8
HOLES
  6
DCAD_SOLID
 62
    16
 48
0.125
  5
8E3
 66
     1
 10
0.0
 20
0.0
 30
0.0
 70
   129
  0
VERTEX
  8
HOLES
  6
DCAD_SOLID
 62
    16
 48
0.125
  5
8E4
 10
2.826459
 20
-0.328405
 30
0.0
 40
0.0
 41
0.0
  0
VERTEX
  8
HOLES
  6
DCAD_SOLID
 62
    16
 48
0.125
  5
8E5
 10
2.776459
 20
-0.299537
 30
0.0
 40
0.0
 41
0.0
  0
VERTEX
  8
HOLES
  6
DCAD_SOLID
 62
    16
 48
0.125
  5
8E6
 10
2.826459
 20
-0.27067
 30
0.0
 40
0.0
 41
0.0
  0
VERTEX
  8
HOLES
  6
DCAD_SOLID
 62
    16
 48
0.125
  5
8E7
 10
2.826459
 20
-0.328405
 30
0.0
 40
0.0
 41
0.0
  0
SEQEND
  8
0
  5
8E8
  0
POLYLINE
  8
HOLES
  6
DCAD_SOLID
 62
    16
 48
0.125
  5
8E9
 66
     1
 10
0.0
 20
0.0
 30
0.0
 70
   128
  0
VERTEX
  8
HOLES
  6
DCAD_SOLID
 62
    16
 48
0.125
  5
8EA
 10
3.288959
 20
-0.299537
 30
0.0
 40
0.0
 41
0.0
  0
VERTEX
  8
HOLES
  6
DCAD_SOLID
 62
    16
 48
0.125
  5
8EB
 10
3.526459
 20
-0.299537
 30
0.0
 40
0.0
 41
0.0
  0
SEQEND
  8
0
  5
8EC
  0
POLYLINE
  8
HOLES
  6
DCAD_SOLID
 62
    16
 48
0.125
  5
8ED
 66
     1
 10
0.0
 20
0.0
 30
0.0
 70
   129
  0
VERTEX
  8
HOLES
  6
DCAD_SOLID
 62
    16
 48
0.125
  5
8EE
 10
3.476459
 20
-0.27067
 30
0.0
 40
0.0
 41
0.0
  0
VERTEX
  8
HOLES
  6
DCAD_SOLID
 62
    16
 48
0.125
  5
8EF
 10
3.526459
 20
-0.299537
 30
0.0
 40
0.0
 41
0.0
  0
VERTEX
  8
HOLES
  6
DCAD_SOLID
 62
    16
 48
0.125
  5
8F0
 10
3.476459
 20
-0.328405
 30
0.0
 40
0.0
 41
0.0
  0
VERTEX
  8
HOLES
  6
DCAD_SOLID
 62
    16
 48
0.125
  5
8F1
 10
3.476459
 20
-0.27067
 30
0.0
 40
0.0
 41
0.0
  0
SEQEND
  8
0
  5
8F2
  0
POLYLINE
  8
HOLES
  6
DCAD_SOLID
 62
    16
 48
0.125
  5
8F3
 66
     1
 10
0.0
 20
0.0
 30
0.0
 70
   128
  0
VERTEX
  8
HOLES
  6
DCAD_SOLID
 62
    16
 48
0.125
  5
8F4
 10
3.839698
 20
0.114671
 30
0.0
 40
0.0
 41
0.0
  0
VERTEX
  8
HOLES
  6
DCAD_SOLID
 62
    16
 48
0.125
  5
8F5
 10
3.839698
 20
0.01467
 30
0.0
 40
0.0
 41
0.0
  0
SEQEND
  8
0
  5
8F6
  0
POLYLINE
  8
HOLES
  6
DCAD_SOLID
 62
    16
 48
0.125
  5
8F7
 66
     1
 10
0.0
 20
0.0
 30
0.0
 70
   129
  0
VERTEX
  8
HOLES
  6
DCAD_SOLID
 62
    16
 48
0.125
  5
8F8
 10
3.868565
 20
0.064671
 30
0.0
 40
0.0
 41
0.0
  0
VERTEX
  8
HOLES
  6
DCAD_SOLID
 62
    16
 48
0.125
  5
8F9
 10
3.839698
 20
0.01467
 30
0.0
 40
0.0
 41
0.0
  0
VERTEX
  8
HOLES
  6
DCAD_SOLID
 62
    16
 48
0.125
  5
8FA
 10
3.81083
 20
0.064671
 30
0.0
 40
0.0
 41
0.0
  0
VERTEX
  8
HOLES
  6
DCAD_SOLID
 62
    16
 48
0.125
  5
8FB
 10
3.868565
 20
0.064671
 30
0.0
 40
0.0
 41
0.0
  0
SEQEND
  8
0
  5
8FC
  0
POLYLINE
  8
HOLES
  6
DCAD_SOLID
 62
    16
 48
0.125
  5
8FD
 66
     1
 10
0.0
 20
0.0
 30
0.0
 70
   128
  0
VERTEX
  8
HOLES
  6
DCAD_SOLID
 62
    16
 48
0.125
  5
8FE
 10
3.839698
 20
0.389671
 30
0.0
 40
0.0
 41
0.0
  0
VERTEX
  8
HOLES
  6
DCAD_SOLID
 62
    16
 48
0.125
  5
8FF
 10
3.839698
 20
0.489671
 30
0.0
 40
0.0
 41
0.0
  0
SEQEND
  8
0
  5
900
  0
POLYLINE
  8
HOLES
  6
DCAD_SOLID
 62
    16
 48
0.125
  5
901
 66
     1
 10
0.0
 20
0.0
 30
0.0
 70
   129
  0
VERTEX
  8
HOLES
  6
DCAD_SOLID
 62
    16
 48
0.125
  5
902
 10
3.81083
 20
0.439671
 30
0.0
 40
0.0
 41
0.0
  0
VERTEX
  8
HOLES
  6
DCAD_SOLID
 62
    16
 48
0.125
  5
903
 10
3.839698
 20
0.489671
 30
0.0
 40
0.0
 41
0.0
  0
VERTEX
  8
HOLES
  6
DCAD_SOLID
 62
    16
 48
0.125
  5
904
 10
3.868565
 20
0.439671
 30
0.0
 40
0.0
 41
0.0
  0
VERTEX
  8
HOLES
  6
DCAD_SOLID
 62
    16
 48
0.125
  5
905
 10
3.81083
 20
0.439671
 30
0.0
 40
0.0
 41
0.0
  0
SEQEND
  8
0
  5
906
  0
POLYLINE
  8
HOLES
  6
DCAD_SOLID
 62
    16
 48
0.125
  5
907
 66
     1
 10
0.0
 20
0.0
 30
0.0
 70
   128
  0
VERTEX
  8
HOLES
  6
DCAD_SOLID
 62
    16
 48
0.125
  5
908
 10
2.631033
 20
0.827372
 30
0.0
 40
0.0
 41
0.0
  0
VERTEX
  8
HOLES
  6
DCAD_SOLID
 62
    16
 48
0.125
  5
909
 10
2.740103
 20
0.930346
 30
0.0
 40
0.0
 41
0.0
  0
SEQEND
  8
0
  5
90A
  0
POLYLINE
  8
HOLES
  6
DCAD_SOLID
 62
    16
 48
0.125
  5
90B
 66
     1
 10
0.0
 20
0.0
 30
0.0
 70
   129
  0
VERTEX
  8
HOLES
  6
DCAD_SOLID
 62
    16
 48
0.125
  5
90C
 10
2.683929
 20
0.917012
 30
0.0
 40
0.0
 41
0.0
  0
VERTEX
  8
HOLES
  6
DCAD_SOLID
 62
    16
 48
0.125
  5
90D
 10
2.740103
 20
0.930346
 30
0.0
 40
0.0
 41
0.0
  0
VERTEX
  8
HOLES
  6
DCAD_SOLID
 62
    16
 48
0.125
  5
90E
 10
2.723563
 20
0.875031
 30
0.0
 40
0.0
 41
0.0
  0
VERTEX
  8
HOLES
  6
DCAD_SOLID
 62
    16
 48
0.125
  5
90F
 10
2.683929
 20
0.917012
 30
0.0
 40
0.0
 41
0.0
  0
SEQEND
  8
0
  5
910
  0
POLYLINE
  8
HOLES
  6
DCAD_SOLID
 62
    16
 48
0.125
  5
911
 66
     1
 10
0.0
 20
0.0
 30
0.0
 70
   128
  0
VERTEX
  8
HOLES
  6
DCAD_SOLID
 62
    16
 48
0.125
  5
912
 10
2.845801
 20
1.030138
 30
0.0
 40
0.0
 41
0.0
  0
VERTEX
  8
HOLES
  6
DCAD_SOLID
 62
    16
 48
0.125
  5
913
 10
2.812816
 20
0.998996
 30
0.0
 40
0.0
 41
0.0
  0
SEQEND
  8
0
  5
914
  0
POLYLINE
  8
HOLES
  6
DCAD_SOLID
 62
    16
 48
0.125
  5
915
 66
     1
 10
0.0
 20
0.0
 30
0.0
 70
   129
  0
VERTEX
  8
HOLES
  6
DCAD_SOLID
 62
    16
 48
0.125
  5
916
 10
2.86899
 20
1.01233
 30
0.0
 40
0.0
 41
0.0
  0
VERTEX
  8
HOLES
  6
DCAD_SOLID
 62
    16
 48
0.125
  5
917
 10
2.812816
 20
0.998996
 30
0.0
 40
0.0
 41
0.0
  0
VERTEX
  8
HOLES
  6
DCAD_SOLID
 62
    16
 48
0.125
  5
918
 10
2.829355
 20
1.054311
 30
0.0
 40
0.0
 41
0.0
  0
VERTEX
  8
HOLES
  6
DCAD_SOLID
 62
    16
 48
0.125
  5
919
 10
2.86899
 20
1.01233
 30
0.0
 40
0.0
 41
0.0
  0
SEQEND
  8
0
  5
91A
  0
ENDSEC
  0
EOF
